Disciple - Regime Change Chords & Tabs

 

Regime Change Chords & Tabs

Disciple Chords & Tabs

Version: 1 Type: Bass Tab

Regime Change Bass Tab

Regime Change - Disciple
4 String Bass Guitar
Drop C tuning
Intro pt.1      Intro pt.2
|------------|  |-------------|
|------------|  |-------------|
|------------|  |-------------|
|-0000-------|x4|-00000000-0-|x4
                At the end of pt.2 slide from 0 to 12
Intro pt.3          At the end of pt.3
|---------------|   |-------------|
|---------------|   |-------------|
|---------------|   |-------------|
|-0000-0000-/12-|x7 |-0000-0000-0-|

Verse 1             End of Verse 1
|---------------|   |-----|
|---------------|   |-----|
|---------------|   |-----|
|-0-0--0-0--0-0-|x2 |-12\-|
    X    X    *let ring
Verse 2
|--------------0--------------------------------0-------------------|
|-0-032---0-032---0-032-032-3232---0-032---0-032---0-032-032-32320--|
|------3---------------3---3----3-------3---------------3---3-----3-|
|-------------------------------------------------------------------|
[ Tab from: https://www.guitartabs.cc/tabs/d/disciple/regime_change_btab.html ]
Prechorus   Chorus
|---------| |-----------------------------------------------|
|---------| |-----------------------------------------------|
|-1x8-3x8-| |------------33-1x8-3x8---------1110003-1x8-3x8-|
|---------| |-0-333222000-----------0-333222----------------|x2

REST

Verse 3
|------------------------------------------------------------------|
|------------------------------------------------------------------|
|------------------------------------------------------------------|
|-0000-0000-0--0000-0000-0-000-000-0000-0000-0--0000-0000-0-00-\12-|

Verse 2
Prechorus
Chorus x2

Bridge
|----------------------------------------------------------|
|----------------------------------------------------------|
|----------------------------------------------------------|
|-3x8-8x8-5x8-8x4-10x4-3x8-8x8-5x8-8x3-7x3-8x3-7-7-8-8-7-7-|

REST
Intro pt.2 x8
Intro pt.2 x3 Smoother than normal

Extra Riff
|-------------|
|-------------|
|---------5---|
|-0000-000--3-|

Intro pt.2 x3 Smooth
Intro pt.3 Ending
Chorus x2

Outro
|-----------------|   |-------------|
|-----------------|   |-------------|
|-----------------|   |-------------|
|-0x8-2x8-3x8-0x8-|x4 |-00000000-0-|x3

This should be 98% correct. If you have questions or comments email me at 
I have a few bass cover videos on youtube
so just search madbassmassacre on youtube and you will get em. ENJOY!!!