Dirty Pretty Things - Gin And Milk Chords & Tabs

 

Gin And Milk Chords & Tabs

Dirty Pretty Things Chords & Tabs

Version: 1 Type: Tab

Gin And Milk Tab

   
-------------------------------------------------------------------------------
		     Dirty Pretty Things - Gin & Milk
-------------------------------------------------------------------------------

any questions just comment and il do my best to answer. cheers, please rate also. its 
to know if people benefit from your tab, and makes the time spent worthwhiled.

tabbed by elliot    www.myspace.com/elliotasfuck
help from PBOY

NOTE/ if you dont get the chord changes there is a rough guide in the lyrics at the bottom.


intro:

one guitar bashes out this:

      G#  G#m                 G#m

e|----4----4-----------------4----4----------|
B|----4----4-----------------4----4----------|
G|----5----4-----------------4----4----------| x 4
D|----6----6-----------------6----6----------|
A|----6----6-----------------6----6----------|
E|----4----4-----------------4----4----------|


another nails this riff at the same time.


e|----------------------|
b|----------6---4---3---|
g|----------6---4---3---|  x 8
d|----6--6--------------|
a|----------------------|
e|----------------------|


which leads on to:

e|-----------------------------------------------------4-4-4-4-4-4-4-4--|
b|-4-4-4-4-4-4-4-4-4-6-6-6-6-6-6-6-6-6-7-7-7-7-7-7-7-7------------------|
g|----------------------------------------------------------------------|
d|----------------------------------------------------------------------|
a|----------------------------------------------------------------------|
e|----------------------------------------------------------------------|

verse:

just these 2 chords bashed out with a bit of muting here and there

e|----4----4-----------------4----4---------|
B|----4----4-----------------4----4---------|
G|----5----5-----x---x-------4----4---------|
D|----6----6-----x---x-------6----6---------|
A|----6----6-----x---x-------6----6---------|
E|----4----4-----x---x-------4----4---------|

this is played mostly but E is also played in barre on 7th fret or C barre shape on 4th.

like so:

e|---7---------4--|
B|---9----or---5--|
G|---9---------4--|
D|---9---------6--|
A|---7---------7--|
E|----------------|


coming up to the chorus:
(strum fast) C#m  ---> Am

     C#m             Am

e|---4-4-4-4-4-4-4-4-5-5-5-5-5-5-5-5---------|
B|---5-5-5-5-5-5-5-5-5-5-5-5-5-5-5-5---------|
G|---6-6-6-6-6-6-6-6-5-5-5-5-5-5-5-5---------|
D|---6-6-6-6-6-6-6-6-7-7-7-7-7-7-7-7---------|
A|---4-4-4-4-4-4-4-4-7-7-7-7-7-7-7-7---------|
E|-------------------5-5-5-5-5-5-5-5---------|


solo:

PART A

e|----------------------------------------|
B|-----9----9---9---9---11----12----11----|
G|----------------------------------------| x3
D|----------------------------------------|
A|----------------------------------------|
E|----------------------------------------|

PART B
[ Tab from: https://www.guitartabs.cc/tabs/d/dirty_pretty_things/gin_and_milk_tab.html ]
e|----------------------------------------|
B|----------------------------------------|
G|-----9---9---9---10---------------------|
D|--------------------------12------------|
A|----------------------------------------|
E|----------------------------------------|

these 2 bits are repeated like 3 times so the solo goes AAABAAABAAABC


then i think that is repeated and then played an octave higher so its like this:

PART C

e|----------16---16----16----16---16----18-----19-------18-----|
B|-------------------------------------------------------------|
G|-------------------------------------------------------------|
D|-------------------------------------------------------------|
A|-------------------------------------------------------------|
E|-------------------------------------------------------------|


after the solo the verse just repeats.

here are the lyrics and rough position of chord changes:

{G#m} Iím in to myself
On uncertain terms
I put gin in my milk
To kill all the germs
As I pray for the day
That life will return
And I pray for myself
But I never learn   {E}
No I never learn
See I really like you
But Iím nothing like you
I try oh so hard
But donít get so far
You get my respect
But we donít connect
Were in it together
So Iíll love you forever {G#,E}
I love you forever
And so it rains on

{C#m, Am}
No one gives a fuck about the values I would die for
Not the faceless civil servants
The rudimentary crack whore
No one gives two fucks about the values I would kill for
Give them something to die for
Give me something to die for
{intro part 2 bit played}

{G#m}You wonít really see me
I live in old movies
Cloaked tightly in sin
So they wont come in
Its like spying on cities
Through cracks in the floor
Thought I knew what the blag was
But now Iím not sure {E}
What do I know anymore?

{C#m, Am}
And no one gives a fuck
About the values I would die for
Not the baseist civil servant
The rudimentary crack whore
And no one gives two fucks
About the values I could kill for
Give them something to die for
Give me something to die for

{solo}

{G#m}
Still Iím into myself
On uncertain terms.
I put gin in my milk
It kills all the germs
As I pray for the day
That life will return
And I pray for myself
But I never learn {E}
No Iíll never learn

{C#m}
No one gives a fuck
{Am}
About the values I would die for
{C#m}
Not the faceless civil servant
{Am}
A rudimentary crack whore
{C#m}
No one gives two fucks
{Am}
About the values I would kill for
Give me something to die for
Give me something to die for

No oneís too perturbed
About the things that I would cry for
Iíve been trying all my life
Until thereís nothing left to try for
No oneís too perturbed
About the things that I would live for
Give me something to try for
Give me something to try for