Dirty Pretty Things - Enemy Chords & Tabs

 

Enemy Chords & Tabs

Dirty Pretty Things Chords & Tabs

Version: 2 Type: Tab

Enemy Tab

   
Artist: Dirty Pretty Things
Song: The Enemy
Album: Waterloo To Anywhere
Tuning: Standard
Tabbed By James Morris
Date: 31.05.2006
[ Tab from: https://www.guitartabs.cc/tabs/d/dirty_pretty_things/enemy_tab_ver_2.html ]
Intro
  So  Far   Dishonsest as the day is long im sorry so ill go now, but
E|-----3~---------------3---------/7--5~-------5--7--5/-------3~----|
B|-----------------0--------0--1------5~-------5~----5/-------------|
G|-0---------0-3----------------------5~-------5~----5/----0--------|
D|------------------------------------------------------------------|
A|------------------------------------------------------------------|
E|------------------------------------------------------------------|
  I love you so   i wont be long         and the specters in
E|-----------3----------/7---5~-------------------------------|
B|-------0--------0--1-------5~------x------------------------|
G|-0-3-----------------------5~------x------------------------|
D|-----------------------------------x------------12-12-12-12-|
A|-----------------------------------x------------10-10-10-10-|
E|------------------------------------------------------------|
the masonry remind us of the things that might have been
E|------------------------------------------------------|
B|------------------------------------------------------|
G|-------------------12-12-12-12-12-12-12-12-11-10-9~~~-|
D|-12-12-12-12-12-12-12-12-12-12-12-12-12-12-11-10-9~~~-|
A|-10-10-10-10-10-10-10-10-10-10-10-10-10-10--9--8-7~~~-|
E|------------------------------------------------------|
Main Riff
Guitar 1
E|---7---7---7---7---7---7---7---7---7---7---7---7---7---7---7---7-|
B|-5---5---5---5---5---5---5---5---5---5---5---5---5---5---5---5---|
G|-----------------------------------------------------------------|
D|-----------------------------------------------------------------|
A|-----------------------------------------------------------------|
E|-----------------------------------------------------------------|
Guitar 2
E|----------------------------------9------9------9------12-12--x-x-|
B|----------------------------------9------9------9------12-12--x-x-|
G|-----------------------------9/12---9/12---9/12---9/12----12--x-x-|
D|------------------------------------------------------------------|
A|------------------------------------------------------------------|
E|------------------------------------------------------------------|
Guitar 1
E|-x-x-x-x-x-x-x-x-|
B|-x-x-x-x-x-x-x-x-|
G|-x-x-x-x-x-x-x-x-| x2
D|-x-x-x-x-x-x-x-x-|
A|-x-x-7-7-x-x-7-7-|
E|-x-x-x-x-x-x-x-x-|
Guitar 2
E|-x-x-x-x-x-x-x-x-|
B|-x-x-x-x-x-x-x-x-|
G|-x-x-9-9-x-x-9-9-|
D|-x-x-x-x-x-x-x-x-| x2
A|-x-x-x-x-x-x-x-x-|
E|-x-x-x-x-x-x-x-x-|
Then back to main riff again.

Verse
Bass
G|-----------------------------------------------------------|
D|-------------6--------------6------------------------------|
A|-7-7---0-7-7----7-7---0-7-7----4-4---0-4-4---0-4-4---0-4-4-|
E|-----------------------------------------------------------|

Guitar bashes around the chords of E and C#m

Thatís as far as ive got, will update when I have figured out more.
Please rate and comment. Thanks. Enjoy.