Dirty Pretty Things - Enemy Chords & Tabs

 

Enemy Chords & Tabs

Dirty Pretty Things Chords & Tabs

Version: 1 Type: Tab

Enemy Tab

   
E-----3-----------3-------7--5--5-7-5--|
B--------------0----0-1------5---------|
G--0------0-3----------------5---------|
D--------------------------------------|
A--------------------------------------|
E--------------------------------------|


E-----3-----------3-------7--5-|
B--------------0----0-1------5-|
G--0------0-3----------------5-|
D------------------------------|
A------------------------------|
E------------------------------|


This part is played while carl sings:
So far dishonest as the day is long
Iím sorry so Iíll go now
But I love you so it wonít be long
[ Tab from: https://www.guitartabs.cc/tabs/d/dirty_pretty_things/enemy_tab.html ]
           G                                                              E
And the spectres in the masonry remind us of the things that might have been

GUITAR 1

E----7---7----7---7----7---7-|
B--5---5---5----5---5----5---|
G----------------------------|
D----------------------------|
A----------------------------|
E----------------------------|

GUITAR 2

E---------------------------------------------------|
B---5SLIDETO7-7--5S7-7--5S7-7--5S7-7--5S7-7--5S7-7--|
G---------------------------------------------------|
D---------------------------------------------------|
A---------------------------------------------------|
E---------------------------------------------------|

THATS ALL I GOT! chris_wheatley02@hotmail.com