Dirty Pretty Things - Doctors And Dealers Chords & Tabs

 

Doctors And Dealers Chords & Tabs

Dirty Pretty Things Chords & Tabs

Version: 1 Type: Tab

Doctors And Dealers Tab

   
Artist: Dirty Pretty Things
Song: Doctors and Dealers
Album: Waterloo To Anywhere
Year: 2006

Pretty sure that most of this is correct. Hope it aint to hard to understand either! Tobyo.

^ = Up Strokes
v = Down Strokes


Intro:

   v          v        v          v       v ^ v  ^v^ v^v
e:-5--7-8-----7--5-7/--10--8-10---7-------6-6-6--666-666---|
B:-5----------8--------10---------8-------6-6-6--666-666---|
G:-5----------7---------7---------7-------7-7-7--777-777---|
D:-7-------------------------------------------------------|
A:---------------------------------------------------------|
E:---------------------------------------------------------|
   v ^ v  ^v^ v^v    v v v v v v v v  v v v v v v v v
e:-8-8-8--888-888----5-5-5-5-5-5-5-5--6-6-6-6-6-6-6-6------|
B:-6-6-6--666-666----6-6-6-6-6-6-6-6--6-6-6-6-6-6-6-6------|
G:-7-7-7--777-777----5-5-5-5-5-5-5-5--7-7-7-7-7-7-7-7------|
D:-------------------7-7-7-7-7-7-7-7--8-8-8-8-8-8-8-8------|
A:---------------------------------------------------------|
E:---------------------------------------------------------|

Verse Rythm:

  <------F------->   <------Dm------>
   v ^ v  ^v^ v^v     v ^ v  ^v^ v^v
e:-1-1-1--111-111-----5-5-5--555-555---|
B:-1-1-1--111-111-----6-6-6--666-666---|
G:-2-2-2--222-222-----7-7-7--777-777---|
D:-3-3-3--333-333-----7-7-7--777-777---|
A:-3-3-3--333-333-----5-5-5--555-555---|
E:-1-1-1--111-111-----5-5-5--555-555---|

  <------Bb------>   <------Gm------>
   v ^ v  ^v^ v^v     v ^ v  ^v^ v^v
e:-6-6-6--666-666-----3-3-3--333-333---|
B:-6-6-6--666-666-----3-3-3--333-333---|
G:-7-7-7--777-777-----3-3-3--333-333---|
D:-8-8-8--888-888-----5-5-5--555-555---|
A:-8-8-8--888-888-----5-5-5--555-555---|
E:-6-6-6--666-666-----3-3-3--333-333---|


Bridge 1:

   Dm  Bb  Dm  Gm
e:-5---7---5---3--|
B:-6---7---6---3--|
G:-7---8---7---3--|
D:-7---9---7---5--|
A:-5---9---6---5--|
E:-5---7---6---3--|

Bridge 2:

  <-------Bb------------|
e:-6666666666666666-----|
B:-6666666666666666-----|
G:-7777777777777777-----|
D:-8888888888888888-----|
A:-8888888888888888-----|
E:-6666666666666666-----|

Chorus Rythm: - The part in brackets is the part of the chorus in brackets

   F   A  <-----------Bb---->
   v^  v^  v^v ^     (v^v^)-----|
e:-11--55--555-5-----(5555)-----|
B:-11--55--555-5-----(5555)-----|
G:-22--66--666-6-----(6666)-----|
D:-33--77--777-7-----(7777)-----|
A:-33--77--777-7-----(7777)-----|
E:-22--55--555-5-----(5555)-----|

Chorus Riff: - Played over Chorus

e:-5-6-8-6--565-------|
B:--------------6-----|
G:----------------7---|
D:--------------------|
A:--------------------|
E:--------------------|

Outro Riff:

e:--------------------|
B:---6-8-10--10-8-6---|
G:-7----------------7-|
D:--------------------|
A:--------------------|
E:--------------------|
[ Tab from: https://www.guitartabs.cc/tabs/d/dirty_pretty_things/doctors_and_dealers_tab.html ]
Verse 1:
F                                 Dm
I donít believe in anything they tell meís set in stone
Bb                                  Gm
They say that were together but Iím sat here on my own
       F                         Dm
In the company of strangers this trigger happy scene
          Bb                                 Gm
Well if a heart do like a hind then there is nothing in-between

Bridge 1:
   Dm                  Bb
Oh no, no well I donít mind
   Dm                  Gm
Oh no, no well I donít mind

Chorus:
            F        A      Bb
Cause I can call someone to bring the fight on
             Bb
(the doctors and the dealers)
F       A      Bb
Get someone to shed some light on
               Bb
(miracle cure, soul stealers)
F         A           Bb
Crack pot quacks with cracked up egos
             Bb
(prescribing old placebos)
F      A             Bb
Collecting junk that we dont need, no

Bridge 2:

Verse 2:
F                                         Dm
I see them now and then still spitting out those lies
Bb                                             Gm
Strange it doesnít bother me iíve got my own disguise
       F                                                     Dm
And thereís really not that much of me for Jesus left to save
   Bb                                 Gm
If savings only bartering my soul can be his pay

Bridge 1:
   Dm                  Bb
Oh no, no well I donít mind
   Dm                  Gm
Oh no, no well I donít mind

Chorus:
            F        A      Bb
Cause I can call someone to bring the fight on
             Bb
(the doctors and the dealers)
F       A      Bb
Get someone to shed some light on
               Bb
(miracle cure, soul stealers)
F         A           Bb
Crack pot quacks with cracked up egos
             Bb
(prescribing old placebos)
F      A             Bb
Collecting junk that we dont need, no

Bridge 1: - 2 Times
Dm          Bb         Dm               Gm
You got the ball i was lucky to get the chain
    Dm            Bb                    Dm                        Gm
But now I have to watch the crowds half hazardly chasing down the drain

Bridge 2 X2:
<----------------------Bb------------------------->
So what does it do? Nothing for me what about you?

Chorus and Chorus Riff:
             Bb
(The doctors and the dealers)
             Bb
(The doctors and the dealers)
             Bb
(The doctors and the dealers)

Bridge 2:

Outro Riff: - 10 times - Played over Chords of the Verses

They come to you
They come to me
They come in drones
Oh one two three
They come to you
they come to me
They come in drones
Oh one two three
They come to you
they come to me
They come in drones
Oh one two three
They come to you
Oh they come to me
They come in drones
Oh one two three
They come to me

good luck!