Dio - The Last In Line Chords & Tabs

 

The Last In Line Chords & Tabs

Dio Chords & Tabs

Version: 3 Type: Bass Tab

The Last In Line Bass Tab

Dio
The Last In Line
Tabbed by Sean W. (4StringMadness)
E-Mail- bassbyfender@hotmail.com

All of the tabs I have seen on the internet are only partially correct.  This is pretty 
darn close, much closer than the others!  Feel free to comment! Thanks!

  Intro

(00:9)
1------    ---------------------------------------|
2------    ---------------------------------------|
3------    -0-2-3----2--0-0-0--0-2-3--2-----3~----|
4--3---    -------------------------------1~--1~--|

1---------------------------------------------|
2---------------------------------------------|
3-0-2--3---2--0-0-0--0-2-3--2-----------0-2-3-|
4------------------------------3~-------------|

1------------------------|
2------------------------|
3-2--0-0-0--0-2--3-2-0---|
4----------------------3~|

1---------------------------------------------------|
2---------------------------------------------------|
3-----------------------------------------------5h7-|
4---5-5-5\------5-5-5\------5-5-5\------5-5-5\------|

1-------------------------------------------------------------------|
2-------------------------------------------------------2----0------|
3---------5h77-3h5-------5h77-3h5-------5h77-3h5----------0----3-2-0|
4---5-5-5----------5-5-5----------5-5-5----------5-5-5--------------|

   Verse

1---------------------------------------------------------|
2---------------------------------------------------------|
3------------------------------------------------------5-7|
4--5-5-----5-5--5-5--3h5-5-3-333-333-333-33-55-5-5555-5---|

1-------------------------------------------------|
2-------------------------------------------------|
3-------------------------------------------------|
4--5-5-----5-5-----5-5-----5-5-3-333-333-333-35\--|


1------------------------------------------------------------|
2------------------------------------------------------------|
3------------------------------------------------------------|
4--5-5-----5-5-----5-5-----5-5-3-333-333-333-335-555-555-555-|

  Chorus

1-------------------------------------------------------------------|
2-0---------------------0---------------------0---------------------|
3--3-2-0------------------3-2-0-----------------3-2-0---------------|
4---------1--1-1--1-1-1---------1--1-1--1-1-1---------3--3-3--3-3-3-|


1----------------------------------------------------------|
2-0--------------------------------------------------------|
3---3-2-0----------------------------5h77-3h5-----5h77-3h55|
4---------3--3-3--3-3-3--3-3---5-5-5---------5-5-5---------|

1----------------------------------|
2------------------------2---0-----|
3-------5h77-3h55----------0--3-2-0|
4-5-5-5-----------5-5-5------------|

  Verse

1----------------------------------------------------------|
2----------------------------------------------------------|
3-----------------------------------------------------5-7--|
4-5-5---5-5----3h5-5--5-5-3-333-333-333-33-55-5-5555-5-----|

1-----------------------------------------------------------|
2-----------------------------------------------------------|
3-----------------------------------------------------------|
4-5-5-----5-5-----5-5-----5-5-3-333-333-333-335-555-555-555-|

  Chorus
[ Tab from: https://www.guitartabs.cc/tabs/d/dio/the_last_in_line_btab_ver_3.html ]
1-------------------------------------------------------------------|
2-0---------------------0---------------------0---------------------|
3--3-2--0----------------3-2-0------------------3-2-0---------------|
4---------1--1-1--1-1-1---------1--1-1--1-1-1----------3--3-3--33-3|

1---------------------------------------------------------|
2-0-------------------------------------------------------|
3---3-2-0---------------------------5h77-3h5------5h77-3h5|
4---------3--3-3--3-3-3--3-3--5-5-5---------5-5-5---------|

1-----------------------------------|
2---------------------2-----0-------|
3-------5h77-3h5--------0----3-2-0--|
4-5-5-5---------5-5-5---------------|

  During Solo

1-------------------------------------------------------------------------|
2------------0--------------0-------------------------------0-------------|
3--------------3-2-0------------3-2---------------------------3-2-0-------|
4-1-1-----------------1-1-------------3-5-5------3-5-5--------------1-1---|

1--------------------------------------------------------|
2---0-----------------0---------------------------0------|
3-----3-2-0-------------3-2-------------------------3-2-0|
4-----------1-1---------------3-5-5--------3-5-5---------|


1-----------------------------------------------------------------|
2---------------0---------------------0---------------------------|
3----------------3-2-0------------------3-2-----------------------|
4-1-111-111-11----------1-111-111-11--------1-5-555-555-555---3-5-|

1----------------------------------------------------------------|
2-------------0---------------------0--------------------0-------|
3---------------3-2-0-----------------3-2-0----------------3-2-0-|
4-555-555-55----------1-111-111-11----------1-111-111-11---------|

1---------------------------------------|
2---------------------------------------|
3---------------------------------------|
4-5-555-555-555-555-555-555-555-555-55--|

   Bridge Out

1-----------------------------------------------|
2---------------------------------------0-------|
3-----------------------------------------3-2-0-|
4--5-5-5\----5-5-5\----5-5-5\----5-5-5\---------|

   Verse

1--------------------------------------------------------|
2--------------------------------------------------------|
3-----------------------------------------------------5-7|
4-5-5-3h5-53h5-53h5-5-3-333-333-333-33-55-5-5555-5-----|

1----------------------------------------------|
2----------------------------------------------|
3----------------------------------------------|
4-5-5---3h5-5---3h5-5---3h5-5-3-333-333-333-555|

   Chorus

1-------------------------------------------------------------------|
2-0---------------------0---------------------0---------------------|
3---3-2-0-----------------3-2-0-----------------3-2-0---------------|
4---------1--1-1--1-1-1--------1--1-1--1-1-1---------3-3-3-3--3-3-3-|

1----------------------------|
2-0--------------------------|
3--3-2-0--------------------|
4--------3-3-3-3--3-3-3--3-3-|

1-------------------------------------|
2-------------------------------------|
3-------------------------------------|    X2
4-5-5-5\----5-5-5\----5-5-5\----5-5-5\|

1-----------------------------|
2-----------------------------|
3-------5h77-3h5-----5h77-3h5-|   11X or until fade out. Vary the
4-55555---------5-5-5---------|   timing and rhythm as desired.