Dio - Dont Talk To Strangers Chords & Tabs

 

Dont Talk To Strangers Chords & Tabs

Dio Chords & Tabs

Version: 1 Type: Bass Tab

Dont Talk To Strangers Bass Tab

   
Song: Donít talk to strangers
Band: Dio

I havenít seen any tabs for this and itís a good song so I decided to give it a go. I did my best.

Intro at 00:34
G|-7-----------------------------------5-----------7--------------|
D|------------------8---------------------------------------------|
A|----------------------------------------------------------------|
E|----------------------------------------------------------------|x2

G|----------------------------------------------------------------|
D|-----------------------------------------------------2---3---2--|
A|-5-------------0--1------------1--1--3-----------5--------------|
E|----------------------------------------------------------------|

G|----------------------------------------------------------------|
D|----------------------------------------------------------------|
A|-5-------------0--1------------1--1--3--------------------------|
E|----------------------------------------------------------------|

Pre Verse
G|----------------------------------------------------------------|
D|----------------------------------------------------------------|
A|-5--5--------------------------5--5-----------------------------|
E|----------------------------------------------------------------|

Verse A
G|----------------------------------------------------------------|
D|----------------------------------------------------------------|
A|-----5---5-5-5---5-5-5---5-5-5---5-5-5---5-5-5---5-5-5---5-5-5--|
E|----------------------------------------------------------------|

Verse B
G|----------------------------------------------------------------|
D|----------------------------------------------------------------|
A|-5-5-5---5-5-5---5-5-5---5-5-5---5-5-5---5-5-5---5-5-5---5-5-5--|
E|----------------------------------------------------------------|

Verse C
G|----------------------------------------------------------------|
D|------------------------------------------------------------3-2-|
A|-5-5-5---5-5-5---5-5-5---5-5-5---5-5-5---5-5-5---5-5-5---0------|
E|----------------------------------------------------------------|

Verse D
G|----------------------------------------------------------------|
D|-------------------------------------------------3------2-------|
A|-5-5-5---5-5-5---5-5-5---5-5-5---5-5-5---5-5-5-------------3----|
E|----------------------------------------------------------------|

Interlude
G|----------------------------------------------------------------|
D|-----------------------2--------3----5------------5---3---2-----|
A|---5------------5---------------------------------------------5-|
E|----------------------------------------------------------------|

Verse E
G|----------------------------------------------------------------|
D|-------------------------------------------------------3-2-0----|
A|-5-5-5---5-5-5---5-5-5---5-5-5---5-5-5---5-5-5---0-2-3-------3--|
E|----------------------------------------------------------------|

Chorus
G|----------------------------------------------------------------|
D|----------------------------2---5---3----2----------------------|
A|-5--5--5--5--5--5--5--5--5------------------3-------------------|
E|----------------------------------------------------------------|

G|----------------------------------------------------------------|
D|----------------------------2---5---3----2----------------------|
A|-5--5--5--5--5--5--5--5--5------------------3------------1---0--|
E|----------------------------------------------------------------|
[ Tab from: https://www.guitartabs.cc/tabs/d/dio/dont_talk_to_strangers_btab.html ]
Guitar Solo A
G|----------------------------------------------------------------|
D|----------------------------------------------------------------|
A|-5-5-5---5-5-5---5-5-5---5-5-5---1-1-1---1-1-1---1-1-1---1-1-1--|
E|----------------------------------------------------------------|

G|----------------------------------------------------------------|
D|----------------------------------------------------------------|
A|-3-3-3---3-3-3---3-3-3---3-3-3---5-5-5---5-5-5---5-5-5---5-5-5--|
E|----------------------------------------------------------------|

Guitar Solo B
G|----------------------------------------------------------------|
D|----------------------------------------------------------------|
A|-5-5-5---5-5-5---5-5-5---5-5-5---1-1-1---1-1-1---1-1-1---1-1-1--|
E|----------------------------------------------------------------|

G|----------------------------------------------------------------|
D|----------------------------------------------------3--2--0-----|
A|-3-3-3---3-3-3---3-3-3---3-3-3---5-5-5---5-5-5---5-----------3--|
E|----------------------------------------------------------------|

Slow Bit
G|----------------------------------------------------------------|
D|----------------------------------------------------------------|
A|-5-------------0--1------------1--1--3-----------5--------------|
E|----------------------------------------------------------------|

G|----------------------------------------------------------------|
D|-------------------------------------------3-2---------------3--|
A|-5-------------0--1------------1--1--3---------3-5--------------|
E|----------------------------------------------------------------|

Vocals re-enter
G|----------------------------------------------------------------|
D|---------------------------------------------------------3---2--|
A|-5-------------0--1------------1--1--3--------3--5--------------|
E|----------------------------------------------------------------|

G|----------------------------------------------------------------|
D|----------------------------------------------------------------|
A|-5-------------0--1------------1--1--3--------3--5--------------|
E|----------------------------------------------------------------|

G|----------------------------------------------------------------|
D|----------------------------------------------------------------|
A|-5-------------0--1------------1--1--3--------3--5--------5-----|
E|----------------------------------------------------------------|

G|----------------------------------------------------------------|
D|----------------------------------------------------------------|
A|-5-------------0--1------------1--1--3--------------------------|
E|----------------------------------------------------------------|

End
G|----------------------------------------------------------------|
D|----------------------------------------------------------------|
A|-5-5-5---5-5-5--1-----------------------------------------------|
E|----------------------------------------------------------------|

Song Structure:
Intro x1
Pre Verse x1
Verse A x1
Verse B x2
Verse C x1
Verse B x1
Verse D x1
Interlude x1
Verse B x3
Verse E x1
Verse B x1
Verse E x1
Interlude x2
Chorus x1
Guitar Solo A x6
Guitar solo B x2
Slow Bit x1
Vocals re-enter x1
Pre Verse x1
Verse B x5
End x1

And thatís that. It should be totally correct but if youíve any comments or suggestions let me know.

Please rate.

Enjoy!!!