Dierks Bentley - Come A Little Closer Chords & Tabs

 

Come A Little Closer Chords & Tabs

Dierks Bentley Chords & Tabs

Version: 1 Type: Tab

Come A Little Closer Tab

   
     Dierks Bentley
"Come A Little Closer"
Submitted By Seth15Stratocast@AOL.COM

Capo 3rd Fret               INTRO:

                      e|--8-8-8--5--6--6-5-----------------------|
                      b|--6-6-6--6--6--6-6-----------------------|
                      g|-----------5--5--5-5---2-----------------|
                      d|--------------------------2--------------|
                      a|--------------------------0--------------|
                      e|-----------------------------------------|


 D                   G                            D
Come a little closer baby, I feel like laying you down
 D                   G                                D
On a bed of sweet surrender, where we can work it all out
Bm                                   G   Bm                                 G
There ainít nothing that love canít fix, girl itís right here at our fingertips
 D                      G                            D
So come a little closer baby, I feel like laying you down

D                    G                         D
Come a little closer baby, I feel like letting go
D                            G                                D
Of everything that stands between us, and the love we used to know
Bm                       G           Bm                             G
I wanna touch you like a cleansing rain and let it wash all the hurt away
D                       G                         D
So come a little closer baby, I feel like letting go
[ Tab from: https://www.guitartabs.cc/tabs/d/dierks_bentley/come_a_little_closer_tab.html ]
Bm                                       G                                 D
If thereís still a chance, then take my hand, and weíll steal away
Bm                            G                        E
Up into the night, to make things right, the suns gonna rise on a better day


SOLO
                      e|--8-8-8--5--6--6-5-----------------------|
                      b|--6-6-6--6--6--6-6-----------------------|
                      g|-----------5--5--5-5---2-----------------|
                      d|--------------------------2--------------|
                      a|--------------------------0--------------|
                      e|-----------------------------------------|

D                    G                              D
Come a little closer baby, I feel like stripping it down
D                     G                                       D
Back to the basics of you and me, and what makes the world go round
Bm                G                Bm                                  G
Every inch of you against my skin, I wanna be stronger than weíve ever been
D                G                              D
So come a little closer, I feel like striping it down
D                    G                       D
Come a little closer baby, just a little bit closer
D                    G                           D
Come a little closer baby, I feel like laying you down
SOLO
                      e|--8-8-8--5--6--6-5-----------------------|
                      b|--6-6-6--6--6--6-6-----------------------|
                      g|-----------5--5--5-5---2-----------------|
                      d|--------------------------2--------------|
                      a|--------------------------0--------------|
                      e|-----------------------------------------|