Devin Townsend - Sunset Chords & Tabs

 

Sunset Chords & Tabs

Devin Townsend Chords & Tabs

Version: 1 Type: Tab

Sunset Tab

   
-----------------------------------------------------------------------
			     Sunset- Devin Townsend
------------------------------------------------------------------------
Tabbed by: espcgc


Tuning: Low to High: C-G-C-G-C-E

| /  slide up
| \  slide down
| h  hammer-on
| p  pull-off
| ~  vibrato
| +  harmonic
| X  Mute note

E|---------------------------------------------------------|
C|---------------------------------------------------------|
G|---------------------------------------------------------| X 2
C|-------------------7-------------------------------------|
G|------7-----5-----------5------7-9-----------------------|
C|--0-0---0-0---0-0----0-0---0-0---------------------------|
    X X   X X   X X    X   X
E|---------------------------------------------------------|
C|---------------------------------------------------------|
G|---------------------------------------------------------| X 2
C|---------------------7-----------------------------------|
G|------7------5--------------5-----7-9--------------------|
C|--9-9----9-9----9-9-----9-9----9-9-----------------------|
    X X    X X    X X     X X    X X

E|---------------------------------------------------------|
C|---------------------------------------------------------|
G|---------------------------------------------------------|  
C|-------------------7-------------------------------------|
G|------7-----5-----------5------7-9-----------------------|
C|--0-0---0-0---0-0----0-0---0-0---------------------------|
    X X   X X   X X    X X   X X 


E|---------------------------------------------------------|
C|---------------------------------------------------------|
G|---------------------------------------------------------|  
C|-------------------7-------7---7/9-----------------------|
G|------7-----5-----------5--------------------------------|
C|--0-0---0-0---0-0----0-0---------------------------------|
    X X   X X   X X    X X 

[ Tab from: https://www.guitartabs.cc/tabs/d/devin_townsend/sunset_tab.html ]
E|---------------------------------------------------------|
C|---------------------------------------------------------|
G|---------------------------------------------------------| X 2
C|---------------------7-----------------------------------|
G|------7------5--------------5-----7-9--------------------|
C|--9-9----9-9----9-9-----9-9----9-9-----------------------|
    X X    X X    X X     X X    X X





E|------------------------------------------------------|
C|------------------------------------------------------|
G|------------------------------------------------------| X 2
C|------------------------------------------------------|
G|------7-----5-----4h5-5-5-5p4-0-----------------------|
C|--7-7---7-7---7-7-------------------------------------|
    X X   X X   X X



E|------------------------------------------------------|
C|------------------------------------------------------|
G|------------------------------------------------------| 
C|------------------------------------------------------|
G|------7-----5-----4h5-5-5-5---------------------------|
C|--9-9----9-9---9-9------------------------------------|
    X X    X X   X X

E|------------------------------------------------------|
C|------------------------------------------------------|
G|---------------------------0--------------------------| 
C|------------------------------------------------------|
G|------7-----5-----4h5-5-------------------------------|
C|--9-9----9-9---9-9------------------------------------|
    X X    X X   X X 


E|------------------------------------------------------|
C|------------------------------------------------------|
G|------------------------------------------------------| X 2
C|------------------------------------------------------|
G|------7-----5-----4h5-5-5-5p4-0-----------------------|
C|--7-7---7-7---7-7-------------------------------------|
    X X   X X   X X 


E|------------------------------------------------------|
C|------------------------------------------------------|
G|------------------------------------------------------| X 2
C|------------------------------------------------------|
G|--------4--------7------------------------------------|
C|---3--5-----5--7--------------------------------------|


E|--------------0---------------0-----------------------|
C|----------------0---------------0---------------------|
G|------------------4---------------4-------------------|X 2
C|------------------------------------------------------|
G|----4h5-5-2-----------4h5-5-2-------------------------|
C|------------------------------------------------------|

Thatís all I have at the moment Iím working on the rest of it.