Derozer - 144 Chords & Tabs

 

144 Chords & Tabs

Derozer Chords & Tabs

Version: 1 Type: Tab

144 Tab

144 Derozer

Strofe:
----------------------------------------|
----------------------------------------|
4-4-4-4---------------------------------|
4-4-4-4-6-6-6-6-2-2-2-2-4-4-4-4---------|
2-2-2-2-6-6-6-6-2-2-2-2-4-4-4-4---------|
----------4-4-4-4-0-0-0-0-2-2-2-2-------|
[ Tab from: https://www.guitartabs.cc/tabs/d/derozer/144_tab.html ]
Ritornello:
-----------------------------------------|
-----------------------------------------|
4-4-4-4-8-8-8-8-9-9-9-9-6-6-6-6----------|
4-4-4-4-8-8-8-8-9-9-9-9-6-6-6-6----------|
2-2-2-2-6-6-6-6-7-7-7-7-4-4-4-4----------|
-----------------------------------------|

Dopo il secondo Ritornello:
--------------------------------------------|
--------------------------------------------|
4------4------------------4----6-8-11-------|
4-4-4-4-4-4-2-2-6-4---4-6-6-8-11------------|
2-4-4-2-4-4-2-2-6-4---2-6-4-6-9-------------|
--2-2----2-2-0-0-4-2-----4------------------|

Mi sembra giusta,
per commenti suggerimenti o altro la mia e-mail  gaga-91@hotmail.it
Ciao!