Derek Webb - Wedding Dress Chords & Tabs

 

Wedding Dress Chords & Tabs

Derek Webb Chords & Tabs

Version: 1 Type: Tab

Wedding Dress Tab

   
Artist: Derek Webb
Song: Wedding Dress
Album: She Must and Shall Go Free
Tabber: clark@theoddmenout.com

www.derekwebb.com

Capo 3 (all tab relative to capo)

hamm 3= hammer on the key's 3rd note (In C it would be D string fret 2)


Chords used:
   C  Am Fmaj7/C  F  Gsus/B  Csus
e--0---0-----0----1---3-------0----|
B--1---1-----1----1---1-------1----|
G--0---2-----2----2---0-------0----|
D--2---2-----3----3---0-------3----|
A--3---0-----3----3---2-------3----|
E-----------------1----------------|

Intro/ C riff:
  (C)
e-------------------------------------|
B-------------------1----1------------|
G--------0-----0----0h2--0---------0--|
D------2---0h2---h2---------2p0----0--|
A--3-----------------------------3----|
E-------------------------------------|

Main Riff:
  (Am)              (Fmaj7/C)      (C)
e-------0--0---0-0---0--0---0-0-------------------------------------|
B--1----1--1---1-1---1--1---1-1-------------------1----1------------|
G--0h2--2--2---2-2---2--2---2-2--------0-----0----0h2--0---------0--| x2
D--0h2--2--2---2-2---3--3---3-3------2---0h2---h2---------2p0----0--|
A--0----0--0---0-0---3--3---3-3--3-----------------------------3----|
E-------------------------------------------------------------------|


Verse 1: (play main riff every line for the verses)
Am           Fmaj7/C      C
If you could love me as a wife,
Am          Fmaj7/C           C
and for my wedding gift, your life
Am             Fmaj7/C      C
Should that be all Iíd ever need,
                             Am    F   C Riff
or is there more Iím looking for
[ Tab from: https://www.guitartabs.cc/tabs/d/derek_webb/wedding_dress_tab.html ]
Verse 2:
Am           Fmaj7/C           C
And should I read between the lines,
Am           Fmaj7/C         C
and look for blessings in disguise
Am          Fmaj7/C            C
To make me handsome, rich, and wise
                        Am     F    C(hamm 3)  Gsus/B (unsure of name)
Is that really what you want


Chorus:
F
I am a whore I do confess 
      Am
But I put you on just like a wedding dress,
      C(hamm 3)
and I run down the aisle,
      Gsus/B
and I run down the aisle
      F
Iím a prodigal with no way home
      Am
but I put you on just like a ring of gold
      C(hamm 3)
and I run down the aisle, 
Gsus/B                Verse Riff x2
run down the aisle to you


Eletric Part:(also relatice to capo)
 (Am)    (Fmaj7/C)      (C)
e------3-------------------------|
B--0-1-----0h1--0----------------|
G----------0----0--2--0-------0--| x2 and throughout next verses
D------------------------0h2-----|
A--------------------------------|
E--------------------------------|


Verse 3: (same except where noted)
So could you love this bastard child
Though I donít trust you to provide
With one hand in a pot of gold
                           Am    F    C   Csus C
and with the other in your side

Verse 4:
I am so easily satisfied
by the call of lovers so less wild
That I would take a little cash 
Over your very flesh and blood


Chorus x2

Electric Part with Verse Riff x1


Bridge:
        C     Gsus/B Am
Because money cannot buy
  C         Gsus/B  Am
a husbandís jealous eye
     C        Gsus/B Am   C          Fmaj7/C
When you have knowingly deceived his wife


Chorus (first one without "...to you") x2

Electric Part x4


That's it! For corrections, suggestions, and requests, email me:
                        oddmenout4@yahoo.com