Death Cab For Cutie - Thats Incentive Chords & Tabs

 

Thats Incentive Chords & Tabs

Death Cab For Cutie Chords & Tabs

Version: 1 Type: Bass Tab

Thats Incentive Bass Tab

DEATH CAB FOR CUTIE
Thatís Incentive


INTRO
G-----------------10-------------------------------------------|
D------------12 -------------8---7ó77--------------------------|
A--10--10 -----------8--8--------------66---55-----------------|
E--------------------------------------------------------------|
[ Tab from: https://www.guitartabs.cc/tabs/d/death_cab_for_cutie/thats_incentive_btab.html ]
VERSE ( > = play note x4)
G--------------------------------------------------------------|
D--------------------------------------------------------------|
A---6>-6>-6>-6>--10>-10>-12>-13>-------------------------------|
E--------------------------------------------------------------|

BRIDGE / OUTRO
G--------------------------------------------------------------|
D------------87------------------------------------------------|
A-10-10-8------6-6-6-8-5---------------------------------------|
E--------------------------------------------------------------|

VERSE 2
G--------------------------------------------------------------|
D--------------------------------------------------------------|
A-6>-6>-6>-6>-------------8>-----------------------------------|
E------------------6>-6>-5>------------------------------------|