Death Cab For Cutie - Soul Meets Body Chords & Tabs

 

Soul Meets Body Chords & Tabs

Death Cab For Cutie Chords & Tabs

Version: 1 Type: Bass Tab

Soul Meets Body Bass Tab

Soul Meets Body Bass

i know its not right because in the video he doesnt play on the same frets. i could fix 
but i dont want to. questions/comments Brizzledawg@hotmail.com
(I also tabbed Underwater by All-time Quarterback but i forgot to write my email)

G--------------------------------------------|
D--0--0--0--0--------------------------------|             (2x)
A----------------3-3-3--3--------------------|
E--------------------------------------------|


G-------------------------------------------------------------------------|
D0{16x}-3(16x)-0(16x)-3(16x)-0(16x)-3(16x)-------------------------------|             (2x)
A----------------------------------------------------------3(16x)-3(16x)--|
E-------------------------------------------------------------------------|
(stop at mouth beat part thing)

G---------2---------5(3x)-3(2x)-2----------2--------5(6x)--|
D-0(15x)3(8x)-------------------0(15x)---3(8x)------------|
A----------------------------------------------------------|       (2x)
E----------------------------------------------------------|

G---------2---------5(3x)-3(2x)-2--------------------------------------------|
D-0(15x)3(8x)------------------5(8x)----------------------------------------|
A----------------------------------------------------------------------------|
E----------------------------------------------------------------------------|

G---------------------|
D-0(4x)---------------|
A--------0(4x)-3(8x)--|       (3x)
E---------------------|
I like to slide from 1/3(8x) but its your choice

G------------------------------------- ----------------------------------------|
D-0(2x)-3(2x)-------3(2x) 2(8x) -----------------------------------------------|
A----------------3(2x)------------ --------------------------------------------|
E------------------------------------------------------------------------------|

G---------------------|
D-0(4x)---------------|
A--------0(4x)-3(8x)--|       (3x)
E---------------------|

G------------------------------------- ----------------------------------------|
D-0(2x)-3(2x)-------3(2x) 2(8x) -----------------------------------------------|
A----------------3(2x)------------ --------------------------------------------|
E------------------------------------------------------------------------------|

G------------------------------------------------------------------------------|
D-0(5x)--0(5x)----0(5x)--0(5x)-0(5x)0(5x)-------------------------------------|
A------------------------------------------------------3(10x)-3(16x)-----------|
E------------------------------------------------------------------------------|

G---------------------|
D-0(4x)---------------|
A--------0(4x)-3(8x)--|       (3x)
E---------------------|

G------------------------------------- ----------------------------------------|
D-0(2x)-3(2x)-------3(2x) 2(8x) -----------------------------------------------|
A----------------3(2x)------------ --------------------------------------------|
E------------------------------------------------------------------------------|

G---------------------|
D-0(4x)---------------|
A--------0(4x)-3(8x)--|       (3x)
E---------------------|
[ Tab from: https://www.guitartabs.cc/tabs/d/death_cab_for_cutie/soul_meets_body_btab.html ]
G------------------------------------- ----------------------------------------|
D-0(2x)-3(2x)-------3(2x) 2(8x) -----------------------------------------------|
A----------------3(2x)------------ --------------------------------------------|
E------------------------------------------------------------------------------|





G--------------------------------------------|
D--0--0--0--0--------------------------------|             (2x)
A----------------3-3-3--3--------------------|
E--------------------------------------------|


G-------------------------------------------------------------------------|
D0{16x}-3(16x)-0(16x)-3(16x)-0(16x)-3(16x)-------------------------------|             (2x)
A----------------------------------------------------------3(16x)-3(16x)--|
E-------------------------------------------------------------------------|
(stop at mouth beat part thing)

G---------2---------5(3x)-3(2x)-2----------2--------5(6x)--|
D-0(15x)3(8x)-------------------0(15x)---3(8x)------------|
A----------------------------------------------------------|       (2x)
E----------------------------------------------------------|

G---------2---------5(3x)-3(2x)-2--------------------------------------------|
D-0(15x)3(8x)------------------5(8x)----------------------------------------|
A----------------------------------------------------------------------------|
E----------------------------------------------------------------------------|

G---------------------|
D-0(4x)---------------|
A--------0(4x)-3(8x)--|       (3x)
E---------------------|
I like to slide from 1/3(8x) but its your choice

G------------------------------------- ----------------------------------------|
D-0(2x)-3(2x)-------3(2x) 2(8x) -----------------------------------------------|
A----------------3(2x)------------ --------------------------------------------|
E------------------------------------------------------------------------------|

G---------------------|
D-0(4x)---------------|
A--------0(4x)-3(8x)--|       (3x)
E---------------------|

G------------------------------------- ----------------------------------------|
D-0(2x)-3(2x)-------3(2x) 2(8x) -----------------------------------------------|
A----------------3(2x)------------ --------------------------------------------|
E------------------------------------------------------------------------------|

G------------------------------------------------------------------------------|
D-0(5x)--0(5x)----0(5x)--0(5x)-0(5x)0(5x)-------------------------------------|
A------------------------------------------------------3(10x)-3(16x)-----------|
E------------------------------------------------------------------------------|

G---------------------|
D-0(4x)---------------|
A--------0(4x)-3(8x)--|       (3x)
E---------------------|

G------------------------------------- ----------------------------------------|
D-0(2x)-3(2x)-------3(2x) 2(8x) -----------------------------------------------|
A----------------3(2x)------------ --------------------------------------------|
E------------------------------------------------------------------------------|

G---------------------|
D-0(4x)---------------|
A--------0(4x)-3(8x)--|       (3x)
E---------------------|

G------------------------------------- ----------------------------------------|
D-0(2x)-3(2x)-------3(2x) 2(8x) -----------------------------------------------|
A----------------3(2x)------------ --------------------------------------------|
E------------------------------------------------------------------------------|