Death Cab For Cutie - Marching Bands Of Manhattan Chords & Tabs

 

Marching Bands Of Manhattan Chords & Tabs

Death Cab For Cutie Chords & Tabs

Version: 4 Type: Tab

Marching Bands Of Manhattan Tab

E --------------------------------------------------------------------------|
B --------------------------------------------------------------------------|
G --------------------------------------------------------------------------|
D -5-5-5-5-5-5-5-5---12-12-12-12-12-12-12-12--------------------------------|
A-3-3-3-3-3-3-3-3--10-10-10-10-10-10-10-10----------------------------------|
E---------------------------------------------------------------------------|

E -----------------------------------------------|
B -----------------------------------------------|
G -----------------------------------------------|
D ---12-12---------------------------------------|
A----------12-12-12-12ó12--12-12-12--10-10-10-10-|
E --10-10-10-10-10-10-10-10-10-10---8--8--8--8---|
[ Tab from: https://www.guitartabs.cc/tabs/d/death_cab_for_cutie/marching_bands_of_manhattan_tab_ver_4.html ]
E -----------------------------------------------|
B -----------------------------------------------|
G -----------------------------------------------|
D -----------------------------------------------|
A---10-10-10-10----------------------------------|
E -8--8--8--8------------------------------------|

Repeat all of the above as many times as you need to during the verses. (thatís the way 
play it) a little confusing  Enjoy!

Now hereís the break:

E --------------------------------------------------|
B --------------------------------------------------|
G --------------------------------------------------|
D ---10-10-10-10-10-10--9-9--7-7-7-7-7-7-7----------|
A --------------------------------------------10----|
E --------------------------------------------------|


E --------------------------------------------------|
B --------------------------------------------------|
G --------------------------------------------------|
D --------------------------------------------------|
A -10--7-7-7-7-7-7----------------------------------|
E ------------------10-10-10-10-10-10---------------|


Repeat that 2 times.

Well, thatís all I have. I made this because a the other ones were pretty much wrong.