Death Cab For Cutie - Cath Chords & Tabs

 

Cath Chords & Tabs

Death Cab For Cutie Chords & Tabs

Version: 2 Type: Tab

Cath Tab

I'm not that great at tabbing, but this is 100% correct. It's based off of the acoustic 
played at BBC6, which is the most recent version. I have the chords here, it's up to you 
get the rhythm (which isn't too hard).

Artist: Death Cab for Cutie
Track: Cath...
Album: Narrow Stairs

-Standard tuning
-Capo 2

/ - slide
p  pull off
h  hammer on
[ Tab from: https://www.guitartabs.cc/tabs/d/death_cab_for_cutie/cath_tab_ver_2.html ]
Intro riff/Interlude
E-------------------------------------------------------------|
B-0-/0-0-0-------------------------------------030----------|
G-2-/4-4-4-p0-----------------0----------------000----------|
D---------------------0-h2-h4------------------000----------|
A-------------------3--------------------------222----------|
E----------------------------------------------333----------|

Intro riff variation
E--------------------------------|
B-0-/0-0-0-----------------------|
G-2-/4-4-4-h5-p4-p0--------------|
D--------------------------------|
A--------------------------------|
E--------------------------------|

Chorus
E----------------|
B-752----------|
G-000----------|
D-000----------|
A-974----------|
E----------------|

Chorus variation
E-----------------|
B-332-----------|
G-002-----------|
D-202-----------|
A-320-----------|
E-----------------|

Verse
E------------------------|
B------------------------|
G-94----72-------------|
D-00----00-------------|
A-72----72-------------|
E-83----83-------------|

End with Chorus