Death Cab For Cutie - Bixby Canyon Bridge Chords & Tabs

 

Bixby Canyon Bridge Chords & Tabs

Death Cab For Cutie Chords & Tabs

Version: 1 Type: Bass Tab

Bixby Canyon Bridge Bass Tab

   
Band: Death cab for a cutie
Album: Narrow Stairs
Song: Bixby Canyon Bridge

I donít think this tab is perfect
Correction are welcome

Please rate

Intro 0:32

G|--------------------------|
D|-------3~-----------------| 
A|-----3-------3~-----------| 
E|-1~----------------3~-----|

G|--------------------------|
D|--------------------------| 
A|-------------3~-----------| 
E|-1~----------------3~-----|

G|--------------------------|
D|-------3~-----------------| 
A|-----3-------3~-----------| 
E|-1~----------------3~-----|

G|--------------------------|
D|--------------------------| 
A|--------------------------| 
E|-1~-----------------------|

Pause

1:17 verse

G|--------------------------|
D|--------------------------| 
A|-------------3~-----------| x3
E|-1~----------------3~-----|

G|--------------------------|
D|--------------------------| 
A|--------------------------| 
E|-1----11-----1----11------|

G|--------------------------|
D|--------------------------| 
A|-------------3333---------| x3
E|-1111--1111--------3333---|

G|--------------------------|
D|--------------------------| 
A|--------------------------|
E|-1111--1111--5555\-0000~--|

2:00 (Iím not sure with this bit so corrections are welcome)
[ Tab from: https://www.guitartabs.cc/tabs/d/death_cab_for_cutie/bixby_canyon_bridge_btab.html ]
G|--------------------------|
D|----3-----3----25---------| 
A|---3-------3--3-----------|
E|-11---------33------333/5\|

G|----------------5---------|
D|----3-----3----2----------| 
A|---3-------3--3-----------|
E|-11---------33------333/5\|

G|--------------------------|
D|----3-----3----25---------| 
A|---3-------3--3-----------|
E|-11---------33------333/5\|

Pre-chorus (2:16

G|--------------------------|
D|-000000000000333333333333-| 
A|--------------------------| x3
E|--------------------------|

G|--------------------------|
D|-000000000000-------------| 
A|--------------------------|
E|-------------111111111111-|

2:39

G|----------555-------------|
D|-000000333----------------| 
A|------------------------2-| x loads
E|-------------11111133313--|

3:24

G|----------555-------------|
D|-000000333---------333353-| 
A|--------------------------|
E|-------------111111-------|

G|----------555-------------|
D|-000000333----------------| 
A|------------------------2-| x loads
E|-------------11111133313--|

4:19

G|----------555-------------|
D|-000000333---------333353-| 
A|--------------------------|
E|-------------111111-------|

G|----------555--------------------------------------|
D|-000000333-----------------------------------------| 
A|---------------------------------------------------| 
E|-------------1111111111111111111111111~------------|