Death Angel - Bored Chords & Tabs

 

Bored Chords & Tabs

Death Angel Chords & Tabs

Version: 1 Type: Bass Tab

Bored Bass Tab

   
Bored Ė Death Angel
Standard Tuning (E,A,D,G)
================================================================
Rest: (0:00)

Lead-in: (0:10)

G:-------------------------|
D:-------------------------|
A:-------------------------|
E:----0-0-----------0-0----|

Intro: (0:15)

G:----------------------------------------|
D:----------------------------------------|    x2
A:----57777777777777775777777777777777----|
E:----------------------------------------|

Verse riff: (0:27)

G:-----------------------------------|
D:---------------------2p02p02p0-----|    x4
A:-----------------------------------|
E:----00003-02--00003-0--------------|

Post-verse riff: (0:40)
[ Tab from: https://www.guitartabs.cc/tabs/d/death_angel/bored_btab.html ]
G:--------------------------|
D:--------------------------|    x8
A:---------------------5~---|
E:----00003-02--00003-0-----|

Verse (riff): (1:06)

Post-verse: (1:20)

Verse: (1:26)

Chorus (same as post-verse): (1:41)

Verse: (1:54)

Post-verse: (2:07)

Verse: (2:14)

Chorus: (2:28)

Bridge: (2:41)

G:-----------------------------|
D:------------2~--2-0----------|
A:--------------------2-0------|
E:----0~------------------0----|

Solo (same as verse): (2:48)

================================================================

This is my third tab, Iím not sure if thatís what the bass plays in the intro, but if it 
thatís how itís played, and the rest should be correct, so enjoy the song.