Death - Spirit Crusher Chords & Tabs

 

Spirit Crusher Chords & Tabs

Death Chords & Tabs

Version: 3 Type: Bass Tab

Spirit Crusher Bass Tab

   
Key:
/ Slide
^ Bend
~ Let Ring

INTRO:
F |---------------------------------|
C |-----4-------------4-------------| 
G |---2-----2---3---2-----2---3/6---|
D |-0-----3---1---0-----3---1-----4-| x4

VERSE:
F |-------------------------------------------------|
C |-----8/9---------8/9---------8/9---------8/9-----| 
G |---6-----7-----6-----7-----6-----7-----6-----7---|
D |-4---------5-4---------5-4---------5-4---------5-| x4

INTERLUDE:
F |-------------------------------------------------|
C |-------------------------------------------------|
G |-------------------------------------------------|
D |-0-000-2-000-3-000-7-000-5-000-2-000-3-000-2-000-|

F |-----------------------------------------------|
C |-----------------------------------------------|
G |-5-----7-----9-----5-----7~--------------------|
D |---000---000---000---000-----0-000-0-0-0-000-0-|

Both x2

PRE-CHORUS:
F |------------------------------------------------|
C |------------------------------------------------|
G |-7-----9-----10-----9-----7----9----10----9-----|
D |---666---666----666---666--7777-7777--7777-7777-|

F |-----------------------------------------------------------------|
C |-----------------------------------------------------------------|
G |-7----9----10----9----9--------12--------10--------9----9~-------|
D |--8888-8888--8888-8888-10101010--10101010--10101010-7878----/14-|

CHORUS:
F |-------------------------------------------|
C |-------------------------------------------|
G |-----3---------------------3-3----------5~-|
D |-0-------3--3/5-5---0--0---------0--0------|

F |----------------------------------------------|
C |----------------------------------------------|
G |-----3---------------------3-3----------/5-5~-|
D |-0-------3--3/5-5---0--0---------0--0---------|

Both x2

F|------------------|
C|------------------|
G|-----3------------|
D|-0-------3-3/5-5~-|

BRIDGE:
F ||------------------8---------7--------||
C ||-----7-8-------6---6-----5---5---5-|| 
G ||---5-----6---4-------4-3-------3---||
D ||--3---------4------------------------|| x5
[ Tab from: https://www.guitartabs.cc/tabs/d/death/spirit_crusher_btab_ver_3.html ]
MID-PART (Start when drums are coming in):
F |-------------------12---10---9--------------------------10---9----------|
C |-----9---10---12-----------------10-------9---10---12------------9---10-|
G |-8-8---8----8----8----8----8---8----8-8-8---8----8----8----8---8---8----|
D |------------------------------------------------------------------------|

F |-------------------------------------------------------------|
C |--------7/9-9--------9/10-10--------10/12-12--------12/10-10-|
G |--000000-------000000---------000000----------000000---------|
D |-------------------------------------------------------------|

                                                   
F |--------------------------------------10/12-12--------10/9-9--|
C |-------9/10-10--------10/12-12--------------------------------|
G |-888888---------888888----------888888----------888888--------|
D |--------------------------------------------------------------|


GUITAR SOLO (Start when Chuck screams "...bled"):
F |------------------------|
C |-------7--------7-----7-|
G |-0000000--0000000--0000-|
D |------------------------|

F ||-----------------------5--------------------------||
C ||----------------3--------------7--------7-----7-|| 
G ||-0000001--000000---000---0000000--0000000--0000-||
D ||--------------------------------------------------|| x5

F ||-----------------||
C ||---------------||
G ||-4-------0-----||
D ||------2-------0--||

POST-SOLO:
F |----------------------------------------------------------------------|
C |----------------------------------------------------------------------|
G |---------2-------------3-------------5-------------3------------------|
D |-0-000-0---0---0-000-1---1~--0-000-3---3~--0-000-1---1~--0-0000---0---|

F |------------------------------------------------------------------------|
C |------------------------------------------------------------------------|
G |---------2-------------3-------------5-------------3--------------------|
D |-0-000-0---0---0-000-1---1~--0-000-3---3~--0-000-1---1~--0-0000------0--|

F |-----------------------------------------------------------------------|
C |-----------------------------------------------------------------------|
G |---------2-------------3-------------5-------------3-------------------|
D |-0-000-0---0---0-000-1---1~--0-000-3---3~--0-000-1---1~--0-0000-----0--|

F |------------------------------------------|
C |------------------------------------------|
G |---------2-------------3-------------5----|
D |-0-000-0---0---0-000-1---1~--0-000-3---3~-|



Repeat Verse through Mid Part