De Facto - Hoxadrine Live Chords & Tabs

 

Hoxadrine Live Chords & Tabs

De Facto Chords & Tabs

Version: 1 Type: Bass Tab

Hoxadrine Live Bass Tab

Song: Hoxadrine (live)
Artist: defacto
Link: http://www.youtube.com/watch?v=9vixnt-KQVw
Tabber: 51ck00
E-mail: warbass89@hotmail.com

please rate this tab.

Intro:

G||-------------------------|
D||--7--7-----5--7----5--7--|
A||-------------------------|
E||-------------------------|

1 riff: 00:21 to 01:07

G||--------------------------|--------------------------||
D||--------7-----------------|-------5--------/7--------||
A||--------------5--7--8--5--|--7-------7--7------8--7--||
E||--3-5------5--------------|--------------------------||

G||--------------------------|--------------------------||
D||--------7-----------------|-------5--------/7--------||
A||--------------5--7--8--5--|--7-------7--7------8--7--||
E||--5--------5--------------|--------------------------||

2 riff: 01:07 to 01:22

G||--------------------|---------------------||
D||--------------------|---------------------||
A||-----------7--------|--5--------8---------||
E||--5-----------------|----------------3----||

G||--------------------|---------------------||
D||--------------------|---------------------||
A||-----------7--------|--5--------8---------||
E||--5-----------------|----------------3----||


3 riff: 01:22 to 01:50

G||--------------------|---------------------||
D||----7---------------|-----------------5---||
A||-----------7--------|--5--------8---------||
E||--------------------|---------------------||
[ Tab from: https://www.guitartabs.cc/tabs/d/de_facto/hoxadrine_live_btab.html ]
G||--------------------|---------------------||
D||----777-------------|----------------5----||
A||-----------777------|--5--------8---------||
E||--------------------|---------------------||

repeat:
intro
1 riff 02:05 to 02:48
2 riff 02:48 to 03:02
3 riff 03:02 to 03:30



4 riff 03:44 to 05:45

G||-------------------------|-------------------------|
D||-------7--7--7-----------|-------------------------|
A||----------------5--5--5--|-------8--8--8--7--------|
E||--5----------------------|-------------------8--7--|

G||-------------------------|-------------------------|
D||-------7--7--7-----------|-------------------------|
A||----------------5--5--5--|----------7--------------|
E||--5----------------------|-------------0-----0-----|


G||-------------------------|-------------------------|
D||-------7--7--7-----------|-------------------------|
A||----------------5--5--5--|-------8--8--8--7--------|
E||--5----------------------|-------------------8--7--|


G||-------------------------|-------------------------|
D||-------7--7--7-----------|-------------------------|
A||----------------5--5--5--|----------7-----7--------|
E||--5----------------------|-------------0-----0-----|

*improvise with these notes till the end.


-End:

G||--------------------------|--------------------------||
D||--------7-----------------|-------5--------/7--------||
A||--------------5--7--8--5--|--7-------7--7------8--7--||
E||--5--------5--------------|--------------------------||