De Dijk - Bloedend Hart Chords & Tabs

 

Bloedend Hart Chords & Tabs

De Dijk Chords & Tabs

Version: 1 Type: Tab

Bloedend Hart Tab

   
Intro en ook deels refrein

B | Bm | E | Em | D F# | C Em | F# |

Pre-chorus of het deel voor het refrein
"bloedend bloedend hart"

Em | B | Em | B |

Refrein
"alleen jij kan mij helpen, maar je bent er niet"
| D F# | Bm | A G | F# | Bm |

Dit loopje doe je tussen de akkoorden hier boven.

   D  F# Bm   A    G     F#
b|------------10---12----12b------------------------------------------|
g|-7--9--11-----------------------------------------------------------|

En dan eindig je met dit, je pakt dan het Bm akkoord en doet dit:
    Bm
e|----------------------------|
b|---------2-3----------------|
g|------4-------4-------------|
d|---4---------------4--------|
a|----------------------2-----|

Dan de akkoorden tijdens de solo
| B | Bm | E | G A | D F# | Bm | A G | F# |
[ Tab from: https://www.guitartabs.cc/tabs/d/de_dijk/bloedend_hart_tab.html ]
Dan de solo, er kan een fout in zitten bij het laatste snelle stukje
      B            Bm              E              G   A
e|------------------------------------------------------------------------|
b|------------------------------------------------------------------------|
g|--8--9--11----7--9--11----9--9-11---9--4--4-6----7--9--9----------------|
d|------------------------------------------------------------------------|
a|------------------------------------------------------------------------|
E|------------------------------------------------------------------------|
    D      F#     Bm           A   G           F#
e|-----------s7--10p7----10p7------10-------------12-----12--12b----------|
b|-----------s7------10p7------10b----10b-----12b----12b------------------|
g|-7--9--11---------------------------------------------------------------|
d|------------------------------------------------------------------------|
a|------------------------------------------------------------------------|
E|------------------------------------------------------------------------|

Dit is het lied,

En als je niet weet hoe de akkoorden gaan

B  Bm  E  Em  D  F#  C  A
x  x   0  0   2  x   2   0
4  3   0  0   3  x   1   2
4  4   1  0   2  x   2   2
4  4   2  2   0  4   1   2
2  2   2  2   x  4   x   0
x  x   0  0   x  2   x   x

Suc6 en als je vragen hebt, of opmerkingen, moet je het even zeggen

Groeten Basjo