Dayglo Abortions - Drugged And Driving Chords & Tabs

 

Drugged And Driving Chords & Tabs

Dayglo Abortions Chords & Tabs

Version: 1 Type: Tab

Drugged And Driving Tab

   
Standard Tuning: E A D G B E


	Intro
	|-----------|---------------------------------|
	|-----------|---------------------------------|
	|-----------|---------------------------------|    
	|-----------|---------------------------------|    
	|-----------|-4-----5-----4-----5-----4---4/5-|
	|--2//14\2-|-2-0-0-3-0-0-2-0-0-3-0-0-2-0-2/3-|       
	PM              = =   = =   = =   = =   =

	Chorus
	|---------------------------------------------------------------------------|
	|---------------------------------------------------------------------------|
	|---------------------------------------------------------------------------|    
	|------9------11----11/12----7-----7/9-----9------11----11/12----7-----7/9--|    
	|------7------9------9/10----5-----5/7-----7------9------9/10----5-----5/7--|
	|--0-0------0----0-0-------0---0-0-----0-0------0----0-0-------0---0-0------|
	PM = =      =    = =       =   = =     = =      =    = =       =   = =

	Verse
	|--------------------------------------------------------------------|
	|--------------------------------------------------------------------|
   	|------------------------------------------------------------------5-|
	|----------------------------------------------------------------4---| 
     	|------------4ó--4-----------5---5-----------5---5------------3------|
	|--0-0-0-0-0-2ó--2-0-0-0-0-0-3---3-0-0-0-0-0-2---2-0-0-0-0-2---------|
	PM = = = = =       = = = = =       = = = = =       = = = = 


 
    
	Fill
	|---------------------------------------------|
	|---------------------------------------------|
	|---------------------------------------------|    
	|--9-------7-------12-------10-------9--------|    
	|--7-------5-------10-------9--------7--------|
	|---------------------------------------------|


	

It is important to notice at the end of some of the runs of the Eís the last note 
is not palm muted. It
is much easier to play along with the song. 
[ Tab from: https://www.guitartabs.cc/tabs/d/dayglo_abortions/drugged_and_driving_tab.html ]
	Quick Section 1
	|--------------------|
	|--------------------|
	|--------------------|
	|--------------------|
	|--------------------|
	|--0000000000000000--|
	PM ================
	  
	  Quick Section 2
	|------------------------------------------------------------------------|
	|------------------------------------------------------------------------|
	|------------------------------------------------------------------------|  
	|-----------------------------------------------------------------5-4----|    
	|--------------------4-----------------5-----------------4--------3-2-5--|
	|--0-000000000000000-2-000000000000000-3-000000000000000-2-000000-----3--|
	PM   ==============    ==============    ==============    ======
	  
	Quick Section 3
	|------------------------------------------------------------------------|
	|------------------------------------------------------------------------|
	|------------------------------------------------------------------------|
	|--------------------4-----------------5-----------------7--------5-4----|
	|--0-000000000000000-2-000000000000000-3-000000000000000-5-000000-3-2-5--|
	|---------------------------------------------------------------------3--|
	PM   ==============    ==============    ==============    ======
	  


	Solo Chords
	|------------------------------------------------------------------------|
	|------------------------------------------------------------------------|
	|------------------------------------------------------------------------|
	|------------------------------------------------------------------------|
	|--9-----------------------10---7---9-----------------------10---7-------|
	|--7------------------------8---5---7------------------------8---5-------|
	   


Order of Play

Chorus            x2
Verse             x4
Chorus            x2
Verse             x4
Chorus            x2 
Fill              x1
Quick Section 1   x4
Quick Section 2   x4
Quick Section 3   x1
Quick Section 2   x2
-------------------------
Guitar with solo  x2     | 
Quick Section 2   x4     | Lead	  
Quick Section 3   x1     | Solo   
Quick Section 2   x2     |	 
-------------------------
Intro             x4
Verse             x4
Chorus            x4
Fill              x1


Apart from the solo thatís it. Enjoy!