David Wise - Donkey Kong Country 2 Main Theme Chords & Tabs

 

Donkey Kong Country 2 Main Theme Chords & Tabs

David Wise Chords & Tabs

Version: 1 Type: Tab

Donkey Kong Country 2 Main Theme Tab

David Wise: DKC2 Theme
Donkey Kong Country 2 
Arranged for one guitar in standard E tuning. 
Tabbed by Gavin Wood - vag_wood@hotmail.com / www.myspace.com/gavin_eat_cake
If you have any questions or corrections, I'm happy to answer any emails and
comments.

 Guitar Legend: 
 h = Hammer On
 / = Ascending Slide


e||-18----|-17----17-17----17-17----17-18----18-|
B||----15-|----15-------15-------15-------15----|
G||-------|-------------------------------------|
D||-------|-------------------------------------|
A||-------|-------------------------------------|
E||-------|-------------------------------------|

|-17----17-17----17-17----17-18----18-|
|----15-------15-------15-------15----|
|-------------------------------------|
|-------------------------------------|
|-------------------------------------|
|-------------------------------------|

|-----------------------------------|-----------------------------------|
|------------------8----------------|-8----10-11-10-------------10------|
|-7----9--10---7------10-9-10---7---|----------------10---9--9----------|
|-----------------------------------|-----------------------------------|
|-----------------------------------|-----------------------------------|
|-----------------------------------|-----------------------------------|
[ Tab from: https://www.guitartabs.cc/tabs/d/david_wise/donkey_kong_country_2_main_theme_tab.html ]
|-----------------------------------|-----------------------------------|
|-----------------------------------|-----------------------------------|
|-----------------------------------|-----------------------------6-----|
|-----------------5-----------------|-5-----7--8--7---3---6---7-9-------|
|-/5----7--8--5-------8--7--8----5--|-----------------------------------|
|-----------------------------------|-----------------------------------|

|/18--17--15-17--13---15--13--11-10-|-11--10--8-10-----------------9-12-|
|-----------------------------------|--------------11-8--9--10--12------|
|-----------------------------------|-----------------------------------|
|-----------------------------------|-----------------------------------|
|-----------------------------------|-----------------------------------|
|-----------------------------------|-----------------------------------|

|---------17----------17----------17----------17-|
|-15h17h18----15h17h18----15h17h18----15h17h18---|
|------------------------------------------------|
|------------------------------------------------|
|------------------------------------------------|
|------------------------------------------------|

|---------17----------17----------18----------17-|
|-15h17h18----15h17h18----15h17h18----15h17h18---|
|------------------------------------------------|
|------------------------------------------------|
|------------------------------------------------|
|------------------------------------------------|

|-18------17------15-------18---17----|
|-------------------------------------|
|-------------------------------------|
|-------------------------------------|
|-------------------------------------|
|-------------------------------------|