David Gilmour - Castellorizon Chords & Tabs

 

Castellorizon Chords & Tabs

David Gilmour Chords & Tabs

Version: 1 Type: Tab

Castellorizon Tab

   
-------------------------------------------------------------------------------
David Gilmour - Castellorizon
-------------------------------------------------------------------------------
Tabbed by: James Ward
Email: alanshearerbetty@hotmail.com

Tuning: Standard.

e|---------------------------------------------------------------------------|
B|---------------------------------------------------------------------------|
G|-------16~-14-16-14-16---------------12-------12---------------------------|
D|-14-14-----------------14-14---12-14----12-14----14-12-14------------------|
A|----------------------------------------------------------14-14-12-14------|
E|----------------------------------------------------------------------12-12|

Debatable over 12s and 11s here.

e|-------------------------------------------------------------------------------|
B|-------------------------------------------------------------------------------|
G|-18s-19s-21-21b-21s-19p17h19-21b 21--------------------------------------------|
D|------------------------------------14-14-17p14-12-14-14s-5-7b-7-5-7-5-7-9-9v--|
A|-------------------------------------------------------------------------------|
E|-------------------------------------------------------------------------------|
[ Tab from: https://www.guitartabs.cc/tabs/d/david_gilmour/castellorizon_tab.html ]
e|-19b-19-17-19-19b-19b-19-17-19-17-19---------------------------------------|
B|-------------------------------------17-17---------------------------------|
G|---------------------------------------------------------------------------|
D|---------------------------------------------------------------------------|
A|---------------------------------------------------------------------------|
E|---------------------------------------------------------------------------|

e|---------------------------------------------------------------------------|
B|--------------------------------15-----------------------------------------|
G|-15+-15-15-15---12-14-12-15-15v----15--12-14-12-15b------------------------|
D|----------------------------------------------------14s--------------------|
A|---------------------------------------------------------------------------|
E|---------------------------------------------------------------------------|

e|-17-19-20-20b-20-17-19-17-19--------------------15b!-15-14-12-11--------------|
B|-----------------------------17-17s---s12-15-12------------------13-12-10-12--|
G|------------------------------------------------------------------------------|
D|------------------------------------------------------------------------------|
A|------------------------------------------------------------------------------|
E|------------------------------------------------------------------------------|

END.

| /  slide up
| \  slide down  or in my case just s for slide.
| h  hammer-on
| p  pull-off
| ~  vibrato
| +  harmonic
| x  Mute note
===============================================================================