David Crowder Band - Wholly Yours Chords & Tabs

 

Wholly Yours Chords & Tabs

David Crowder Band Chords & Tabs

Version: 1 Type: Tab

Wholly Yours Tab

   
Artist: David Crowder Band
Song: Wholly Yours
Album: A Collision

David Verse (capo 3):

----------------------------------------------|
------3-----------7-------8^10-8^10-------8---|
------0-----------0-----------------------0---|
----0-----------0-----------------------------|
----------------------------------------------|
--3------0^3^7-------8-8-------------8-8------|

----------------------|
--1^3^1^0-------------|
------------2-0-------|
-----------------2-0--|
----------------------|
----------------------|

Jack Verse (capo 3) harmonics:

-----------------|
---(12)----------|
---(12)-----(5)--|
---(12)-----(5)--|
-----------------|
-----------------|

Solley Verse (no capo):

--------------------|
--11-10-6-11^18-----|
--------------------|
--------------------|
--------------------|
--------------------|

=================================================================

David Pre-Chorus:

----------------------------------|
------3-------3------3-------3----|
------0-------0------0-------2^0--|
----0-----0^2-----0--------0------|
--2-----3-------------------------|
----------------3------0^2--------|

Jack Pre-Chorus:

(left)

------------------------------------------------------------|
------------------------------------------------------------|
------------------------------------------------------------|
--12-10-8-10-12-8-7-8-3^8-10-12-15-15-15-12-15-15-15-12-13--|
------------------------------------------------------------|
------------------------------------------------------------|

(right)

-----------------------------------------------------------------|
-----------------------------------------------------------------|
-----------------------------------------------------------------|
--15-13-12-13-15-12-10-12-8^12-13-15-20-19-19-15-19-19-19-15-17--|
-----------------------------------------------------------------|
-----------------------------------------------------------------|

Solley Pre-Chorus (capo 3):

-----------------------------------------3-----|
-----------------------0--------3--3--3---3-3--|
------0--------2-----0--0-0------2--2--2---2---|
-----0-0-0----0-0-0---0--0-----0--0--0--0------|
--0^2---2-2^3----3-----------------------------|
-------------------3-------0^2-----------------|

========================================================================

David Chorus:

-3------3-----3----   ----3----|
-3------3-----3----   ----3----|
-0------0-----0^2--   ----2^0--|
-0^2----0-----0----   ----0----|
-3------2-----0----   ----0----|
--------3----------   ---------|

Jack Chorus (capo 3):

--------3-------------3---------------2-----3-----2--------|
----3-----3---3---3-----3---3-----------3-----3-----3---3--|
------0-----0-------0-----0------0^2------2-----2-----2----|
-------------------------------0---------------------------|
--3--------------------------------------------------------|
----------------3------------------------------------------|

Solley Chorus (capo 8):

------2-------0-------0---2---0----------|
----3---3---3---3---3---3---3---3--------|
--0--------------------------------------|
----------0------------------------------|
------------------0----------------------|
-----------------------------------------|

=========================================================================

David Bridge:

--3----3----3----3-----3-----3-----3-----3----|
--1----3----3----3-----3-----3-----3-----3----|
--0----0----0----0^2---0-----0-----0-----0^2--|
--3----2----0----0-----0^2---0-----0-----0----|
--3----3----2----0-----3-----2-----2-----0----|
--1---------3----2-----------------3-----2----|

Jack Bridge (capo 3):

-------------------------------------------------------------------|
-----1------1--------1-----1----------3------3-------3-------3-----|
---0--0-0-0--0-0----0-0-0-0-0-0------0-0-0-0--0-0---0-0-0-0---0-0--|
--3-3--3-3-3--3ó0^2----2-2---2----3^5---5-5-5--5-0^4---4-4-4---4---|
-------------------------------------------------------------------|
-------------------------------------------------------------------|
[ Tab from: https://www.guitartabs.cc/tabs/d/david_crowder_band/wholly_yours_tab.html ]
--------------------------------------------------------0--2--3----|
------1------1-----------0--0-------3-------3------------3--3--3-3-|
-----0-0-0-0--0-0----0-0--0--0-0---0-0-0--0---0-0--0^2----2--2--2--|
--4^2---2-2-2--2----0---0--0--0---0---0----0---0--0---0------------|
-----------------0^2-----------------------------------------------|
---------------------------------3-------3-------------------------|

Solley Bridge:

--------------------------------------------|
-- ---1-------3-------3-------3-------3-----|
--0---0-----0--0-0-0---0-0-0---0-0-0---0-0--|
--3---2----5-5--5-5-5---5-4-4---4-4-4---4---|
--x---3-------------------------------------|
--1-----------------------------------------|

--------------------------------0--2--3^2-2-|
--1------0----3------3--3-------3--3----3---|
--0---------0--0-0-0--0----0^2---2--2-------|
--2----0------------------0-----------------|
--3--2--------------------------------------|
-----------3-3--3-3-3--3--------------------|

Tune to Eb
CAPO 3

         G    G/B     C
VERSE1:  I AM FULL OF EARTH YOU ARE HEAVENíS WORTH
         G    G/B          C
         I AM STAINED WITH DIRT PRONE TO DEPRAVITY
         G       G/B      C
         YOU ARE EVERYTHING THAT IS BRIGHT AND CLEAN
         G       G/B    C
         THE ANTONYM OF ME YOU ARE DIVINITY

         G/B    C              G        D/F#
PRE CH:  BUT A CERTAIN SIGN OF GRACE IS THIS
         G/B        C           G       D/F#
         FROM THE BROKEN EARTH FLOWERS COME UP
         D
         PUSHING THROUGH THE DIRT

                  C   G     D
CHORUS:  YOU ARE HOLY HOLY, HOLY
                           C    G    D
         ALL HEAVEN CRIES HOLY HOLY GOD
                  C    G     D
         YOU ARE HOLY HOLY, HOLY
                       C   G         D
         I WANT TO BE HOLY LIKE YOU ARE

TURN:    G     G/B    C

         G       G/B      C
VERSE2:  YOU ARE EVERYTHING THAT IS BRIGHT AND CLEAN
         G           G/B     C
         AND YOUíRE COVERING ME WITH YOUR MAJESTY

         G/B       C              G       D/F#
PRE CH2: AND THE TRUEST SIGN OF GRACE WAS THIS
         G/B    C           G               D/F#
         FROM WOUNDED HANDS REDEMPTION FELL DOWN

         LIBERATING MAN

CHORUS2:

         F                 C                       G
BRIDGE:  BUT THE HARDER I TRY THE MORE CLEARLY CAN I
                               D/F#
         FEEL THE DEPTH OF OUR FALL AND THE WEIGHT OF IT ALL
         C                       G/B
         AND SO THIS MIGHT COULD BE
                              G
         THE MOST IMPOSSIBLE THING
                           D/F#          C
         YOUR GRANDNESS IN ME MAKING ME CLEAN
         G     D
         GLORY HALLELUJAH
         C     G     D
         GLORY GLORY HALLELUJAH

CHORUS3: (2X)

OUT:     C            G         D       Em
         SO HERE I AM ALL OF ME FINALLY EVERYTHING
         C      G      D
         WHOLLY WHOLLY WHOLLY
                C    G      D
         I AM WHOLLY WHOLLY WHOLLY
                C    G      D        G   G/B C
         I AM WHOLLY WHOLLY WHOLLY YOURS
                        G  G/B C
         I AM WHOLLY YOURS
         G                G/B                C
         AND I AM FULL OF EARTH AND DIRT AND YOU
         Em     C  Em    C
         HERE I AM EVERYTHING