David Byrne - Monkey Man Chords & Tabs

 

Monkey Man Chords & Tabs

David Byrne Chords & Tabs

Version: 1 Type: Bass Tab

Monkey Man Bass Tab

   
Song: Monkey Man
Artist: David Byrne
Difficulty: Easy
Tabbed: MastaBassa (Thatís me)
Tuning: Standard (G-D-A-E)

This song is pretty easy and it sounds great. Have fun and good luck!

The bass comes in around 0:11

Intro:
G|----------------------------------------------|
D|----------------------------------------------|
A|----------------------------------------------|
E|-2---2/12---2---2/121515-121515-121515-121515-|
 (Those are 12ís and 15ís)

Verse 1:
G|--------------|
D|--------------|
A|---0-2----0-2-|
E|-2------2-----|
[ Tab from: https://www.guitartabs.cc/tabs/d/david_byrne/monkey_man_btab.html ]
Verse 2:
G|----------------------|
D|----------------------|
A|----------------------|
E|-2/7ó7\2---2\7-7/12\2-|

Verse 3:
G|----------------|
D|----------------|
A|---0-2--0-2-0---|
E|-2-----2------2-|

Verse 4:
G|----1-4-------|
D|-44-----------|
A|--------------|
E|--------------|

Order
The order of the verses in this song are pretty obvious if you listen to the song.  It 
around between emí a lot but youíll know when to change.

Enjoy!

Any Questions, Comments, Corrections, Threats please E-Mail me at
MastaBassa72090@gmail.com

David Byrne's Offical Website Link
http://www.davidbyrne.com/