Daughtry - Crashed Chords & Tabs

 

Crashed Chords & Tabs

Daughtry Chords & Tabs

Version: 1 Type: Tab

Crashed Tab

   
Song Crashed
Artist: Daughtry
Album: Daughtry

Standard tuning: EADGBe


Intro:
|----------------|----------------|
|----10-10--/13~-|---13--\5-/7/8~-|
|----X--X----X---|---X----x--x-x--|
|----7--7---/10~-|---10--\2-/4/5~-|
|----------------|----------------|
|----------------|----------------|

|----------------|----------------|
|---/10-10--/13~-|---13--\5-/7/8~-|
|----x--x----x---|---X----x--x-x--|
|---/7--7---/10~-|---10--\2-/4/5~-|
|----------------|----------------|
|----------------|----------------|


Verse:
|----------------|----------------|
|--/10-10--/13~--|--13--\5-/7/8~--|
|---x--x----x----|--X----x--x-x---|
|--/7--7---/10~--|--10--\2-/4/5~--|
|----------------|----------------|
|----------------|----------------|

Play 4 times for 1st verse.


Pre-Chorus: (1st chorus only)
|----------------|----------------|
|----------------|----8---8-8-8-8-|
|----------------|----x---x-x-x-x-|
|----------------|----5---5-5-5-5-|
|----------------|----------------|
|----------------|----------------|


Chorus:
  A5               A5			 C5			   C5
|----------------|----------------|----------------|----------------|
|----------------|----------------|----------------|----------------|
|-2---------2x-x-|-2-----------2--|-5---------5x-x-|-5-----------5--|
|-2---------2x-x-|-2-----------2--|-5---------5x-x-|-5-----------5--|
|-0---------0x-x-|-0-----------0--|-3---------3x-x-|-3-----------3--|
|----------------|----------------|----------------|----------------|

  D5               D5               G5               G5
|----------------|----------------|----------------|----------------|
|----------------|----------------|----------------|----------------|
|-7---------7x-x-|-7-----------7--|----------------|----------------|
|-7---------7x-x-|-7-----------7--|-5---------5x-x-|-5---3h5-3h5-3--|
|-5---------5x-x-|-5-----------5--|-5---------5x-x-|-5--5---------h5|
|----------------|----------------|-3---------3x-x-|-3--------------|

Play this sequence once more to complete the chorus


Pre Verse:
  A5
|----------------|
|----------------|
|-2~-------------|
|-2~-------------|
|-0~-------------|
|----------------|

Verse:
|----------------|----------------|
|--/10-10--/13~--|--13--\5-/7/8~--|
|---x--x----x----|--X----x--x-x---|
|--/7--7---/10~--|--10--\2-/4/5~--|
|----------------|----------------|
|----------------|----------------|

Play 4 times for 2nd verse.


Chorus:
Play the chorus sequence twice

Bridge:
[ Tab from: https://www.guitartabs.cc/tabs/d/daughtry/crashed_tab.html ]
|----------------|----------------|----------------|----------------|
|----------------|----------------|----------------|----------------|
|-7---------7x-x-|-7--------------|-2---------2x-x-|-2-2/7-7-676----|
|-7---------7x-x-|-7----------3h5-|-2---------2x-x-|-2-----------7--|
|-5---------5x-x-|-5----0-3h5-----|-0---------0x-x-|-0~-------------|
|----------------|----------------|----------------|----------------|

|----------------|----------------|----------------|----------------|
|----------------|----------------|----------------|----------------|
|-7---------7x-x-|-7----------7---|-2---------2x-x-|-2-----------2--|
|-7---------7x-x-|-7----------7---|-2---------2x-x-|-2-----------2--|
|-5---------5x-x-|-5----------5---|-0---------0x-x-|-0-----------0--|
|----------------|----------------|----------------|----------------|

|----------------|----------------|
|----------------|----------------|
|-2~-------------|(2)~------------|
|-2~-------------|(2)~------------|
|-0~-------------|(0)~------------|
|----------------|----------------|

Chorus:

Replace the first sequence with:
|----------------|----------------|----------------|----------------|
|----------------|----------------|----------------|----------------|
|--10-10---x-8~--|-----8----8-8-8-|-2---------2x-x-|-2------------2-|
|--x--x----x-x---|-----x----x-x-x-|-2---------2x-x-|-2------------2-|
|--7--7----x-5~--|-----5----5-5-5-|-0---------0x-x-|-0------------0-|
|----------------|----------------|----------------|----------------|

|----------------|----------------|----------------|----------------|
|----------------|----------------|----------------|----------------|
|-5---------5x-x-|-5------------5-|-5-3-------3-5-3|-------3-5-3----|
|-5---------5x-x-|-5------------5-|-----5-3-5------|-5-3-5-------5~-|
|-3---------3x-x-|-3------------3-|----------------|----------------|
|----------------|----------------|----------------|----------------|

The play the original chorus sequence three times.

Outro:

|----------------|----------------|----------------|----------------|
|----10-10--/13~-|---13--\5-/7/8~-|----10-10--/13~-|---13--\5-/7/8~-|
|----X--X----X---|---X----x--x-x--|----X--X----X---|---X----x--x-x--|
|----7--7---/10~-|---10--\2-/4/5~-|----7--7---/10~-|---10--\2-/4/5~-|
|----------------|----------------|----------------|----------------|
|----------------|----------------|----------------|----------------|

|----------------|----------------|----------------|----------------|
|----10-10--/13~-|---13--\5-/7/8~-|----10-10--/13~-|---13--\5-/7/8~-|
|----X--X----X---|---X----x--x-x--|----X--X----X---|---X----x--x-x--|
|----7--7---/10~-|---10--\2-/4/5~-|----7--7---/10~-|---10--\2-/4/5~-|
|----------------|----------------|----------------|----------------|
|----------------|----------------|----------------|----------------|

Well thatís it. It will fit in a word doc. if you make the margins 1cm each side. If you 
any comments/problems send me a message, hope you enjoy it.