Dashboard Confessional - Several Ways To Die Trying Chords & Tabs

 

Several Ways To Die Trying Chords & Tabs

Dashboard Confessional Chords & Tabs

Version: 4 Type: Tab

Several Ways To Die Trying Tab

Intro/Verse

Guitar 1
e---------------------------------------------------------------|
B---------------------------------------------------------------|
G--4-4-4-4--4-4-4-4--9-9-9-9---2-2-2-2--------------------------|
D--2-2-2-2-1-1-1-1--11111111--4-4-4-4--------------------------|repeat over and over
A--2-2-2-2--2-2-2-2--11111111--4-4-3-3--------------------------|
E--0-0-0-0--0-0-0-0---------------------------------------------|

Guitar 2
e--------------------------------------------------------------|
B--------------------------------------------------------------|
G--------------------------------------------------------------|
D-----2-1~-------/6-2~--4-2-4-2-4-2----------------------------|
A---2---------2---------------------3-2------------------------|
E--------------------------------------0-----------------------|

e--------------/4444000----------------------------------------|
B--------------/5555555----------------------------------------|
G--------------/4444444----------------------------------------|
D-----2-1~--------------4-2-4-2-4-2----------------------------|
A---2-------------------------------3-2------------------------|
E---------------------------------------0----------------------|

e---------7p0--/4444000-2---2---2------------------------------|
B---2/5-0------/5555555---5---5---5----------------------------|
G-------------/4444444-------------5-4------------------------|
D--------------------------------------------------------------|
A--------------------------------------------------------------|
E--------------------------------------------------------------|

e---------7p0--/4444000-2---2---2------------------------------|
B---2/5-0------/5555555---5---5---5----------------------------|
G--------------/4444444-------------5-4------------------------|
D--------------------------------------------------------------|
A--------------------------------------------------------------|
E---------------------------------------0----------------------|

e-----------7--/4444000-2---2---2-2----------------------------|
B5~-4-2-4-----/5555555---5---5-5-----------------------------|
G--------------/4444444-------------5-4------------------------|
D---------------------------------------/6-2-------------------|
A--------------------------------------------------------------|
E--------------------------------------------------------------|

e------------7-/4444000-2---2---2-2----------------------------|
B--5-4-2/5-0---/5555555---5---5-5-----------------------------|
G--------------/4444444-------------5-4------------------------|
D--------------------------------------------------------------|
A--------------------------------------------------------------|
E--------------------------------------------------------------|

Pre Chorus

Guitar 1
e-----------------------------------------------------------|
B--3-3-3-3--2-2-2-2--5-5-3-3--2-2-2-2-----------------------|
G--2-2-2-2--2-2-2-2--4-4-2-2--2-2-2-2-----------------------|
D-0-0-0-0-2-2-2-2--2-2-0-0--2-2-2-2-----------------------|
A-----------0-0-0-0----------0-0-0-0-----------------------|
E-----------------------------------------------------------|

e-----------------------------------------------------------|
B-----------------------------------------------------------|
G--2-2-2-2-2-2-2-2-2-2-2-2-2-2-2-2--------------------------|
D--4-4-4-44-4-4-4-4-4-4-4-4-4-4-4--------------------------|
A--4-4-4-4-4-4-4-43-3-3-3-3-3-3-3--------------------------|
E-----------------------------------------------------------|

Chorus

Guitar 1
e--------------------------------------------------|
B-----------2-2-2-2-----------2-2-2-2--------------|
G--1-1-1-1--2-2-2-2--1-1-1-1--2-2-2-2--------------|
D--2-2-2-2-2-2-2-2--2-2-2-2--2-2-2-2--------------|
A--2-2-2-2-0-0-0-0--2-2-2-2--0-0-0-0--------------|
E--0-0-0-0-----------0-0-0-0-----------------------|

e--------------------------------------------------|
B-----------2-2-2-2----------4~-------------------|
G--1-1-1-1--2-2-2-2--1-1-1-1-4~-------------------|
D--2-2-2-2-2-2-2-2--2-2-2-2-4~-------------------|
A--2-2-2-2-0-0-0-0--2-2-2-2-2~-------------------|
E--0-0-0-0-----------0-0-0-0-----------------------|

Guitar 2
E----------------------------------------------------------------|
B----------------------------------------------------------------|
G--9--9--13-11-13-11-9--9--8--9--9--13-11-13-11-9--11-13-15------|
D----------------------------------------------------------------|
A--7--7--11-9--11-9--7--7--6--7--7--11-9--11-9--7--9--11-13------|
E----------------------------------------------------------------|

B----------------------------------------------------------------|
G--9--9--13-11-13-11-13-9--8--9--9--13-11-13-11-9~---------------|
D----------------------------------------------------------------|
A--7--7--11-9--11-9--11-7--6--7--7--11-9--11-9--7~---------------|
E----------------------------------------------------------------|

Repeat Verse
Repeat Pre-chorus
Repeat Chorus

Interlude

Guitar 1
E--------------------------------------------|
B--4-4-4-4-4~-4~-4~-4~--2~~-----------------|
G--4-4-4-4-4~-4~-4~-4~--2~~-----------------|
D--4-4-4-4-4~-4~-4~-4~--2~~-----------------|
A--2-2-2-2-2~-2~-2~-2~--0~~-----------------|
E-------------------------------------------|

Guitar 2
e--------------------------0-0-0-0-2-2-0-0--4-4-4-4-2-2-0-0---|
B---------------------------2-2-2-2-4-4-2-2--5-5-5-5-4-4-2-2---|
G--------------------------------------------------------------|
D--------------------------------------------------------------|
A--------------------------------------------------------------|
E--------------------------------------------------------------|
[ Tab from: https://www.guitartabs.cc/tabs/d/dashboard_confessional/several_ways_to_die_trying_tab_ver_4.html ]
Guitar 1
E--------------------------------------------|
B--4~-4~-4~-4~-------------------------------|
G--4~-4~-4~-4~-------------------------------|
D--4~-4~-4~-4~-------------------------------|
A--2~-2~-2~-2~-------------------------------|
E-------------------------------------------|

Guitar 1
E--------------------------------------------|
B--2-2-2-2-4-4-4-4--------------------------|
G--2-2-2-2-4-4-4-4--------------------------| repeat over and over
D--2-2-2-2-4-4-4-4--------------------------|
A--0-0-0-0-2-2-2-2--------------------------|
E-------------------------------------------|

Guitar 2
E--------------------------------------------------------------|
B--------------------------------------------------------------|
G--9-9-9-9-9-9-9-9-13131311119-9-9-----------------------------|
D--------------------------------------------------------------|
A--7-7-7-7-7-7-7-7-1111119-9-7-7-7-----------------------------|
E--------------------------------------------------------------|

E--------------------------------------------------------------|
B--------------------------------------------------------------|
G-119-9-8-8-9-9-9-13131311119-9-9-----------------------------|
D--------------------------------------------------------------|
A-9-7-7-6-6-7-7-7-1111119-9-7-7-7-----------------------------|
E--------------------------------------------------------------|

E--------------------------------------------------------------|
B--------------------------------------------------------------|
G-119-9-8-8-9-9-9-13131311119-9-9-----------------------------|
D--------------------------------------------------------------|
A-9-7-7-6-6-7-7-7-1111119-9-7-7-7-----------------------------|
E--------------------------------------------------------------|

E--------------------------------------------------------------|
B--------------------------------------------------------------|
G--111111111111111-13131311119-9-9-----------------------------|
D--------------------------------------------------------------|
A-9-9-9-9-9-9-9-9-1111119-9-7-7-7-----------------------------|
E--------------------------------------------------------------|

Repeat Pre-Chorus
Repeat Chorus

Outro

Guitar 1
E--------------------------------------------|
B--4-4-4-4-4~-------------------------------|
G--4-4-4-4-4~-------------------------------|
D--4-4-4-4-4~-------------------------------|
A--2-2-2-2-2~-------------------------------|
E-------------------------------------------|

Guitar 2
e-----------------12----12----12----12-11-12------|
B-------------------------------------------------|
G--------------12----12----12----12---------------|
D-------------------------------------------------|
A-------------------------------------------------|
E-------------------------------------------------|

Guitar 1
E--------------------------------------------|
B--4-4-4-4----------------------------------|
G--4-4-4-4----------------------------------|
D--4-4-4-4----------------------------------|
A--2-2-2-2----------------------------------|
E-------------------------------------------|

Guitar 2
e----12----12----12----12-11-12-------------------|
B-------------------------------------------------|
G-12----12----12----12----------------------------|
D-------------------------------------------------|
A-------------------------------------------------|
E-------------------------------------------------|

Guitar 1
e-----------------------------------------------------------------|
B-44444444444444446666666688881010121212121212121212121212121212--|
G-44444444444444446666666688881010121212121212121212121212121212--|
D-44444444444444446666666688881010121212121212121212121212121212--|
A22222222222222224444444466668888101010101010101010101010101010--
E-----------------------------------------------------------------

Guitar 1
E--------------------------------------------|
B--2-2-2-2-4-4-4-4--------------------------|
G--2-2-2-2-4-4-4-4--------------------------| repeat over and over
D--2-2-2-2-4-4-4-4--------------------------|
A--0-0-0-0-2-2-2-2--------------------------|
E-------------------------------------------|

Guitar 2
E-----------------------------------------------------------------|
B-----------------------------------------------------------------|
G--9--9--13-11-13-11-9--9--8--9--9--13-11-13-11-9-9--8-9---------|
D-----------------------------------------------------------------|
A--7--7--11-9--11-9--7--7--6--7--7--11-9--11-9--7--7-6-7---------|
E-----------------------------------------------------------------|

E----------------------------------------------------------------|
B----------------------------------------------------------------|
G--9--9--13-15-13-11-9--11-13-15151515151515151515151515151515---|
D----------------------------------------------------------------|
A--7--7--11-13-11-9--7--9--11-13131313131313131313131313131313---|
E----------------------------------------------------------------|

End (clean)
E----------------------------------------------------------------|
B----------------------------------------------------------------|
G--9--9--13-11-13-11-9--9--8--9--9--13-11-13-11-9--11-13-15------|
D----------------------------------------------------------------|
A--7--7--11-9--11-9--7--7--6--7--7--11-9--11-9--7--9--11-13------|
E----------------------------------------------------------------|

B----------------------------------------------------------------|
G--9--9--13-11-13-11-13-9--8--9--9--13-11-13-11-9--11-13-15------|
D----------------------------------------------------------------|
A--7--7--11-9--11-9--11-7--6--7--7--11-9--11-9--7--9--11-13------|
E----------------------------------------------------------------|

thats it! you may prefer to play power chords or bar chords in some places instead of 
chords like i have tabbed. ENJOY