Das Pop - Never Get Enough Chords & Tabs

 

Never Get Enough Chords & Tabs

Das Pop Chords & Tabs

Version: 1 Type: Bass Tab

Never Get Enough Bass Tab

Start at 0:15
G|-----------------------------------------------|
D|-----------------------------------------------|
A|-5-5-5-5-5--5-5---------5-5-5-5-5--5-5---------|
E|-----------------------------------------------|		x2

G|-10\3-3----------------------3--3-3------------|
D|---------0-0-2--3-3--7-7-5-5-------------------|
A|-----------------------------------------------|
E|-----------------------------------------------|		x2

Pause - verse
0:46
G|------------|
D|------------|
A|--5~--------|
E|------------|
0:56
G|------------|
D|------------|
A|--5~--------|
E|------------|

Chorus:
G|-10\3-3----------------------3--3-3------------|
D|---------0-0-2--3-3--7-7-5-5-------------------|
A|-----------------------------------------------|
E|-----------------------------------------------|		x2

Verse:
G|-----------------------------------------------|
D|---5-3--3-3--------3-5-------------------------|
A|-5---------------------5--5-5------------------|
E|-----------------------------------------------|		x4

G|-10\3-3----------------------3--3-3------------|
D|---------0-0-2--3-3--7-7-5-5-------------------|
A|-----------------------------------------------|
E|-----------------------------------------------|		x2
[ Tab from: https://www.guitartabs.cc/tabs/d/das_pop/never_get_enough_btab.html ]
Bridge:
G|-------3~---1~-0-------------------------------|
D|-3~--5-----------------------------------------|
A|-----------------2~--2-3~-2~-------------------|
E|-----------------------------------------------|

G|-----------------------------------------------|
D|--5-5-5-5-5-5-5-5------------------------------|
A|-----------------------------------------------|
E|-----------------------------------------------|

Pause  come in together with bells
G|--5-5-5--5-5----------5-5-5--5-5---------------|
D|-----------------------------------------------|
A|-----------------------------------------------|
E|-----------------------------------------------|		x2

Verse:
G|-------------------------|
D|--10\5-3-------3/5--10---|
A|-------------------------|
E|-------------------------|		x2

Pre-Chorus:
G|-----------------------------------------------|
D|-----------------------------------------------|
A|--5-5-5--5-5--------5-5-5--5-5-----------------|
E|-----------------------------------------------|		x2

Chorus:
G|-10\3-3----------------------3--3-3------------|
D|---------0-0-2--3-3--7-7-5-5-------------------|
A|-----------------------------------------------|
E|-----------------------------------------------|		x3

G|-10\3-3----------------------3~----------------|
D|---------0-0-2--3-3--7-7-5-5-------------------|
A|-----------------------------------------------|
E|-----------------------------------------------|

hope it's ok!