Dance Gavin Dance - Burning Down The Nicotine Armoire Chords & Tabs

 

Burning Down The Nicotine Armoire Chords & Tabs

Dance Gavin Dance Chords & Tabs

Version: 1 Type: Bass Tab

Burning Down The Nicotine Armoire Bass Tab

   
Song: Burning Down the Nicotine Armoire

Band: Dance Gavin Dance

Tuning: [Bass] drop d: d-A-d-G


1----------------------------------------------------------------------|
2----------------------------------------------------------------------|
3-3333333333333333------------------3333333333333333-------------------|
4------------------2222222222222222------------------2222222222222222--|


1----------------------------------------------------------------------|
2----------------------------------------------------------------------|
3-----------------------------------3333333333333333-5555555555555555--|
4-2222222222222222-5555555555555555------------------------------------|


1----------------------------------------------------------------------|
2----------------------------------------------------------------------|
3----------------------------------------------------------------------|
4-2222222222222222-5555555555555555-00000000000000000000000000000000---|


1-[---]----------------------------|
2-[---]----------------------------|
3-[---]----------------------------|  x9
4-[-2-]22--22-222--55--55-555-----|

Slapping part:

  ss p   ss  ss    ss p   ss  ss  p
1----------------------------------------------------------------------|
2----------------------------------------------------------------------|
3----0h2--------------0h2----------------------------------------------|
4-22-----54--22----22-----54--22--0h2----------------------------------|

  ss p   ss  ss p   ss  ss p   ss  ss p   s s   s
1----------------------------------------------------------------------|
2----------------------------------------------------------------------|
3----0h2--------0h2--------0h2--------0h2------------------------------|
4-22-----54--22-----54--22-----54--22-----5-0h4-0h4h5------------------|

  ss p   ss  ss p   ss  ss p   ss  ss p   ss
1----------------------------------------------------------------------|
2----------------------------------------------------------------------|
3----0h2--------0h2--------0h2--------0h2------------------------------|
4-22-----54--22-----54--22-----54--22-----54---------------------------|


1------------------------------------|
2------------------------------------|
3-3333333333333333-------------------|  x4
4------------------2222222222222222--|


1----------------------------|
2----------------------------|
3-3-333--3-333---------------|  x2
4--------------2-222--2-222--|

1----------------------------------------------------------------------|
2----------------------------------------------------------------------|
3-3~-----------------------------3~-0-3~-------------------------------|
4-----2222-2222-22-2222-55555555----------2222-2222-22-2222-55555555---|
[ Tab from: https://www.guitartabs.cc/tabs/d/dance_gavin_dance/burning_down_the_nicotine_armoire_btab.html ]
1-------------------------------------------------|
2-------------------------------------------------|
3-3-3-3-333-333-3-3-3-333-355---------------------|  x2
4-----------------------------2-2-2-222-222-5-5~--|

1----------------------------|
2----------------------------|
3-3-333--3-333---------------|  x2
4--------------2-222--2-222--|

1------|
2------|
3-3~~--
4------  ... wait


1----------------------------------------------------------------------|
2----------------------------------------------------------------------|
3-033333333333333333333333333333333-55555555555555555555555555555555---|
4----------------------------------------------------------------------|


1----------------------------------------------------------------------|
2----------------------------------------------------------------------|
3777777777777777-07777777777777777-55555555555555555555555555555555---|
4----------------------------------------------------------------------|


1----------------------------------------------------------------------|
2----------------------------------------------------------------------|
3-33333333333333333333333333333333-55555555555555555555555555555555----|
4----------------------------------------------------------------------|

1----------------------------------------------------------------------|
2----------------------------------------------------------------------|
3777777777777777-07777777777777777-55555555555555555555555555555555---|
4----------------------------------------------------------------------|

1----------------------------------------------------------------------|
2----------------------------------------------------------------------|
3-33333333333333333333333333333333-55555555555555555555555555555555----|
4----------------------------------------------------------------------|

1----------------------------------------------------------------------|
2----------------------------------------------------------------------|
3777777777777777-07777777777777777-55555555555555555555555555555555---|
4----------------------------------------------------------------------|

1----------------------------------------------------------------------|
2----------------------------------------------------------------------|
3-33333333333333333333333333333333-55555555555555555555555555555555----|
4----------------------------------------------------------------------|

1----------------------------------------------------------------------|
2----------------------------------------------------------------------|
3777777777777777-07777777777777777-55555555555555555555555555555555---|
4----------------------------------------------------------------------|

1-----|
2-----|
3-3~--
4-----

I noticed that there wasn't a tab for this so i tried my best.
I'm not 100% with the "slapping part."
Please leave constructive criticism if you don't like it.