Damien Rice - 9 Crimes Chords & Tabs

 

9 Crimes Chords & Tabs

Damien Rice Chords & Tabs

Version: 2 Type: Tab

9 Crimes Tab

Intro

E|------------|------------|------------|------------|------------|
B|----------0-|-1-----0--1-|------------|------------|------------|
G|-------2----|------------|----------0-|------------|-------0--2-|
D|------------|----2-------|-------3----|----------2-|----0-------|
A|------------|-0----------|----3-------|-3-----3----|------------|
E|------------|------------|-1----------|----3-------|-3----------|

Verse/Chorus/Rest of song
[ Tab from: https://www.guitartabs.cc/tabs/d/damien_rice/9_crimes_tab_ver_2.html ]
E|------------|------------|------------|------------|
B|-------0--1-|------------|------------|------------|
G|------------|----------0-|------------|-------0--2-|
D|----2-------|-------3----|----------2-|----0-------|
A|-0----------|----3-------|-3-----3----|------------|
E|------------|-1----------|----3-------|-3----------|

Youíll notice the C in the third bar is an octave too high but its unavoidable, I tried 
but itís too tricky so yeah. Still sounds good and apart from that I think itís alright 
enjoy.