Daan - H Hallo Chords & Tabs

 

H Hallo Chords & Tabs

Daan Chords & Tabs

Version: 1 Type: Bass Tab

H Hallo Bass Tab

   
'H hallo' by D.A.A.N.
Verse: 1.0
Tuning: Standard (EADG)
Tabbed by: Erik van der Meulen

Verse:
G|---------|---------|---------|---------|
D|---------|---------|---3-----|---3-----|
A|---4-3-4-|---4-3-4-|-5---4-5-|-5---4-5-|
E|-5-------|-5-------|---------|---------|
[ Tab from: https://www.guitartabs.cc/tabs/d/daan/h_hallo_btab.html ]
Pre-chorus:
G|---------|---------|---------|---------|
D|---------|---------|---------|---------|
A|---------|---------|---------|---------|
E|-5-------|-3-------|-5-------|-3-------|

Chorus:
G|---------|---------|---------|---------|
D|---------|---3-----|---------|---3-----|
A|---4-3-4-|-5---4-5-|---4-3-4-|-5---4-5-|
E|-5-------|---------|-5-------|---------|