Curtis Mayfield - Gheto Child Chords & Tabs

 

Gheto Child Chords & Tabs

Curtis Mayfield Chords & Tabs

Version: 1 Type: Bass Tab

Gheto Child Bass Tab

   
-------------------------------------------------------------------------------
			     Ghetto Child  Curtis Mayfield
-------------------------------------------------------------------------------

Tabbed By :  chromeaddict
e-mail:

Tuning: standard
[ Tab from: https://www.guitartabs.cc/tabs/c/curtis_mayfield/gheto_child_btab.html ]
G|-----------------------------------------------------------------------------|
D|----------------------------2--4---------------------------------------------|
A|-----------------2--4--2-----------------------------------------------------|
E|-----2----2-5----------------------------------------------------------------|

G|-----------------------------------------------------------------------------|
D|-------------------9b---7----------------------------------------------------|
A|--------------9---------------9--7-------------------------------------------|
E|--7---7-10-------------------------------------------------------------------|