Cure - All Cats Are Grey Chords & Tabs

 

All Cats Are Grey Chords & Tabs

Cure Chords & Tabs

Version: 1 Type: Tab

All Cats Are Grey Tab

Submitter: Loc
Artist: The Cure
Song: All Cats Are Grey ( Main riff)

Excuse my english (Im french)
Here there is the main riff of this song 
Im too lazy to write excatly, so there are only the chords.
[ Tab from: https://www.guitartabs.cc/tabs/c/cure/all_cats_are_grey_tab.html ]
First
e|----------------------------------------------------------------|
B|----------------------------------------------------------------|
G|----------------------------------------------------------------|
D|----------------------------------------------------------------|
A|14--11---9---5--------------------------------------------------|
E|12---0--10---7--------------------------------------------------|
then
e|----------------------------------------------------------------|
B|----------------------------------------------------------------|
G|----------------------------------------------------------------|
D|----------------------------------------------------------------|
A|7--5--7---9--10---9--10--12--7--5-------7-----------------------|
E|8--7--8--10--12--10--12--14--8--7-------5-----------------------|

Enjoy  I f someone has the rest, e-mail me: septlions@yahoo.fr