Crush 40 - Escape From The City Chords & Tabs

 

Escape From The City Chords & Tabs

Crush 40 Chords & Tabs

Version: 1 Type: Bass Tab

Escape From The City Bass Tab

Notice:

All of the tab is the authors work worked out only by ear, please do not steal. For
use only.


KEY:   /   slide down

Intro Riff:

G -----------4-----1------|
D ------------------------|
A -----2-2-2--------------|        X5
E --7/---------4-4---4-2--|
    S  S S S P S S P S S

Verse Riff: X2

G ---------    ---------    ---------    -------------------|
D ---------    ---------    --2------    -------------------|
A --2------ X2 --0-2-4-- X2 ----2-4-- X2 -------------------| X1
E ----2-4--    ---------    ---------    --0-0-0-0-2-2-2-2--|

Pre-Chorus:

G ------------------------------    -----------------------------------|
D ------------------------------    -----------------------------------|
A ----------------2-1-0--------- X3 -----------------------------------| X1
E --0-0-00-2-2-22-------4-4-44--    --0-0-0-0-0-0-0-0-3-3-3-3-3-3-3-3--|

Verse Riff:
[ Tab from: https://www.guitartabs.cc/tabs/c/crush_40/escape_from_the_city_btab.html ]
G ---------    ---------    ---------    -------------------|
D ---------    ---------    --2------    -------------------|
A --2------ X2 --0-2-4-- X2 ----2-4-- X2 -------------------| X1
E ----2-4--    ---------    ---------    --0-0-0-0-2-2-2-2--|

G -----------------------------------|
D -----------------------------------|
A -----------------------------------|
E --3-3-3-3-3-3-3-3-5-5-5-5-5-5-5-5--|

Intro Riff:

G -----------4-----1------|
D ------------------------|
A -----2-2-2--------------|        X4
E --7/---------4-4---4-2--|
    S  S S S P S S P S S

The rest of the song basically follows the same order as above repeated over and over,
is tabbed here, all you have to do is put it in the correct order of the song, which
too difficult. This tab was figured out by ear, therefore some of it may be slightly 
however it sounds okay when played along with the song. If it is wrong, I'm positive only
changes will be needed.

Have fun! :D

 Daniel Jones 2010