Crooked X - Adrenaline Chords & Tabs

 

Adrenaline Chords & Tabs

Crooked X Chords & Tabs

Version: 1 Type: Tab

Adrenaline Tab

   
e--------------------------------------------------------------------------|
b--------------------------------------------------------------------------|
g--------------------------------------------------------------------------|
d----------------4-4--4-4--4-4--4-4--4-4-4---------------------------------|
a----------------4-4--4-4--4-4--4-4--4-4-4---------------------------------|
e--------------------------------------------------------------------------|
intro A
[ Tab from: https://www.guitartabs.cc/tabs/c/crooked_x/adrenaline_tab.html ]
intro B X2
e--------------------------------------------------------------------------|
b--------------------------------------------------------------------------|
g--------------------------------------------------------------------------|
d--4--4-4-4--4--4-4-4-0-7--4--4-4-4--4--4-4-4-4-0-7------------------------|
a--4--4-4-4--4--4-4-4-0-7--4--4-4-4--4--4-4-4-4-0-7------------------------|
e--4--4-4-4--4--4-4-4-0-7--4--4-4-4--4--4-4-4-4-0-7------------------------|
mute                                    . . . .


SECOND GUITAR ONLY SECOND TIME
e------------------------------------|
b---12------11------9------8---------|
g---11------10------8------7---------|
d------------------------------------|
a------------------------------------|
e------------------------------------|


verse=intro B x4


CHORUS:IM NOT SURE BUT IS SIMILAR   X4
e---------------------------------------------------------------------------|
b---------------------------------------------------------------------------|
g---------------------------------------------------------------------------|
d----------------6--6--6-6-6------------------------------------------------|
a----2--2--2-2-2-4--4--4-4-4-6--6--6-6-6-6-6-6-6-6-6-6----------------------|
e----0--0--0-0-0-------------4--4--4-4-4-4-4-4-4-4-4-4----------------------|


INTRO B WITH SECOND GUITAR

CHORUS AND AFTER SOLO

INTRO A

INTRO B