Creedence Clearwater Revival - Have You Ever Seen The Rain Chords & Tabs

 

Have You Ever Seen The Rain Chords & Tabs

Creedence Clearwater Revival Chords & Tabs

Version: 8 Type: Bass Tab

Have You Ever Seen The Rain Bass Tab

Band:    Creedence Clearwater Revival [CCR]                     
Song title:     Have You Ever Seen The Rain?                           
Tabbed by: Bruno Frenchy                                                 
Comments:     Great bass line and tabs corrected  enjoy !

Tune : EADG

INTRO

G|----------|-2-0----------|-------5-4--2--0-0-|
D|----------|-----2--2-0---|-------------------|
A|----------|------------3-|-3--3--------------|
E|----------|--------------|-------------------|

VERSE 1

G|-----------|-----------|-----------|----------|
D|--------/5-|--------/5-|--------/5-|------2-3-|
A|-3--3-3----|-3--3-3----|-3--3-3----|-3--3-----|
E|-----------|-----------|-----------|----------|

G|--------/7-|-------/7--|-----------|----------|
D|-55-5-5----|-55-5-5--5-|--------/5-|-------/5-|
A|-----------|-----------|-3--3-3----|-3--3-3---|
E|-----------|-----------|-----------|----------|

G|-----------|-----------|-----------|----------|
D|--------/5-|--------/5-|--------/5-|------2-3-|
A|-3--3-3----|-3--3-3----|-3--3-3----|-3--3-----|
E|-----------|-----------|-----------|----------|

G|--------/7-|-------/7--|-----------|----------|
D|-55-5-5----|-55-5-5--5-|--------/5-|--------2-|
A|-----------|-----------|-3--3-3----|-3--3-3---|
E|-----------|-----------|-----------|----------|


CHORUS

G|----------|--------|-5--5-4--4-2--2-0--0-0-|
D|-3--3-3-3-|-5--5-5-|-----------------------|
A|----------|--------|-----------------------| x2 
E|----------|--------|-----------------------|
[ Tab from: https://www.guitartabs.cc/tabs/c/creedence_clearwater_revival/have_you_ever_seen_the_rain_btab_ver_8.html ]
G|----------|--------|---------|----------5-4--2--0-0-0-|
D|-3--3-3-3-|-5--5-5-|---5-5---|-----/5-/5--------------|
A|----------|--------|---------|-3--3-------------------| x1
E|----------|--------|---------|------------------------|

VERSE 2

G|-----------|-----------|-----------|----------|
D|--------/5-|--------/5-|--------/5-|------2-3-|
A|-3--3-3----|-3--3-3----|-3--3-3----|-3--3-----|
E|-----------|-----------|-----------|----------|

G|--------/7-|-------/7--|-----------|-5-4--2--0-0-|
D|-5--5-5----|-5--5-5----|--------/5-|-------------|
A|-----------|-----------|-3--3-3----|-------------|
E|-----------|-----------|-----------|-------------|

G|-----------|-----------|-----------|----------|
D|--------/5-|--------/5-|--------/5-|------2-3-|
A|-3--3-3----|-3--3-3----|-3--3-3----|-3--3-----|
E|-----------|-----------|-----------|----------|

G|--------/7-|-------/7--|-----------|----------|
D|-55-5-5----|-55-5-5--5-|--------/5-|------2-2-|
A|-----------|-----------|-3--3-3----|-3--3-----|
E|-----------|-----------|-----------|----------|


CHORUS 

G|----------|--------|-5--5-4--4-2--2-0--0-0-|
D|-3--3-3-3-|-5--5-5-|-----------------------|
A|----------|--------|-----------------------| x2
E|----------|--------|-----------------------|

G|----------|--------|---------|----------5-4--2--0-0-0-|
D|-3--3-3-3-|-5--5-5-|----5-5--|-----/5-/5--------------|
A|----------|--------|---------|-3--3-------------------| x1
E|----------|--------|---------|------------------------|


followed by :

G|----------|--------|-5--5-4--4-2--2-0--0-0-|
D|-3--3-3-3-|-5--5-5-|-----------------------|
A|----------|--------|-----------------------| x2  
E|----------|--------|-----------------------|
 
and finally

G|----------|--------|--------|----------2-0----------|
D|-3--3-3-3-|-5--5-5-|---55--|-----/5/5-----2-2-0---|
A|----------|--------|--------|-3--3---------------3--| x1
E|----------|--------|--------|-----------------------|