Creed - Lullaby Chords & Tabs

 

Lullaby Chords & Tabs

Creed Chords & Tabs

Version: 16 Type: Tab

Lullaby Tab

This is my first tab so it might be a little bit scratchy.  If you don't have the song 
listen to, you NEED to get it so you can hear what he's doing.  I finger-pick this song, 
you can find some way to do it with a pick... Yay for you!

*0--These are sort of pre-notes played immediatly before the next note.  Listen to the 
and you'll understand what I'm saying.  I find it easiest to play these with a backstroke 
the thumb.

I'm open to any comments you'd like to share.

☻Hope you like it.  Godspeed and enjoy!☺ ♫

verse1
e------------------------------------|-------------------------------------|
b--3--2---2--0-----------------------|----3--2---3/5------------3h5--------|
g----------------4---2---2-----------|-----------------2h4--2--------------|
d------------------------------------|---------------------------------0---|
a--2------0---------------------0----|----2------0-----------------------0-|
d------*0-----*0-5----*5-0--------0--|--------*0----*0-5-----*5-0----------|


e------------------------------------|-------------------------------------|
b--3--2---2--0-----------------------|----3--2---3/5------------3----------|
g----------------4---2---2-----------|-----------------2h4--2--------------|
d------------------------------------|---------------------------------0---|
a--2------0---------------------0----|----2------0-----------------------0-|
d------*0-----*0-5----*5-0--------0--|--------*0----*0-5-----*5-0----------|
(Hush my love.....                      (ev-ery-thing...

e------------------------------------|-------------------------------------|
b--3--2---2--0-----------------------|----3--2---3/5------------3h5--------|
g----------------4---2---2-----------|-----------------2h4--2--------------|
d------------------------------------|---------------------------------0---|
a--2------0---------------------0----|----2------0-----------------------0-|
d------*0-----*0-5----*5-0--------0--|--------*0----*0-5-----*5-0----------|
(Close your eyes....                   (Rest in pea...


chorus1
e------------------------------------|-------------------------------------|
b------------------------------------|------------------3---2----2---0-----|
g--0-------4---2---------------------|--0-------4---2----------------------|
d------4----------4--------4h5---4p0-|------4------------------------------|
a--------------------0---------------|------------------2--------0---------|
d--2-------5------0----0-------------|--2-------5-------------*0--------*0-|
                                     (If therefs.....

e------------------------------------|----2---3----------------------------|
b------------------3---2----2---0----|-------------2---3-------------------|
g--0-------4---2---------------------|-------------------------------------|
d------4-----------------------------|-------------------------------------|
a------------------2--------0--------|----5-----*5-2-----------------------|
d--2-------5-------------*0-------*0-|-------------------------------------|
                                        (Hope I...

Bridge1
e------------------------------------|-------------------------------------|
b------------------------------------|-------------------------------------|
g--0-------4---2---------------------|--0-------4---2----------------------|
d------4----------4-------4h5---4p0--|------4-----------4-------4h5---4p0--|
a--------------------0---------------|---------------------0---------------|
d--2-------5------0----0-------------|--2-------5-------0----0-------------|
  (Just give....

e-----------------------------------|--------------------------------------|
b-----------------------------------|--------------------------------------|
g--0-------4---2--------------------|--------------------------------------|
d------4-----------4----------------|----4h5---4---0-----------------------|
a-----------------------------------|---(5)-------------3h4---5---0--------|
d--2-------5-------0----------------|--------------------------------------|


verse2
e------------------------------------|-------------------------------------|
b--3--2---2--0-----------------------|----3--2---3/5------------3----------|
g----------------4---2---2-----------|-----------------2h4--2--------------|
d------------------------------------|---------------------------------0---|
a--2------0---------------------0----|----2------0-----------------------0-|
d------*0-----*0-5----*5-0--------0--|--------*0----*0-5-----*5-0----------|

[ Tab from: https://www.guitartabs.cc/tabs/c/creed/lullaby_tab_ver_16.html ]
e------------------------------------|-------------------------------------|
b--3--2---2--0-----------------------|----3--2---3/5------------3h5--------|
g----------------4---2---2-----------|-----------------2h4--2--------------|
d------------------------------------|---------------------------------0---|
a--2------0---------------------0----|----2------0-----------------------0-|
d------*0-----*0-5----*5-0--------0--|--------*0----*0-5-----*5-0----------|
 (O my love...                          (ev-ery-day....

e------------------------------------|-------------------------------------|
b--3--2---2--0-----------------------|----3--2---3/5------------3----------|
g----------------4---2---2-----------|-----------------2h4--2--------------|
d------------------------------------|---------------------------------0---|
a--2------0---------------------0----|----2------0-----------------------0-|
d------*0-----*0-5----*5-0--------0--|--------*0----*0-5-----*5-0----------|
 (As I drift....                       (Rest in....

Chorus2
e------------------------------------|-------------------------------------|
b------------------------------------|------------------3---2----2---0-----|
g--0-------4---2---------------------|--0-------4---2----------------------|
d------4----------4--------4h5---4p0-|------4------------------------------|
a--------------------0---------------|------------------2--------0---------|
d--2-------5------0----0-------------|--2-------5-------------*0--------*0-|
                                      (I know...

e------------------------------------|----2---3----------------------------|
b------------------3---2----2---0----|-------------2---3-------------------|
g--0-------4---2---------------------|-------------------------------------|
d------4-----------------------------|-------------------------------------|
a------------------2--------0--------|----5-----*5-2-----------------------|
d--2-------5-------------*0-------*0-|-------------------------------------|
                                        (That you.....

Bridge2
e------------------------------------|-------------------------------------|
b------------------------------------|-------------------------------------|
g--0-------4---2---------------------|--0-------4---2----------------2-----|
d------4-----------4-------4h5--4--0-|------4-----------4-------4h5-----0--|
a---------------------0--------------|---------------------0---------------|
d--2-------5-------0----0------------|--2-------5-------0----0-------------|
   (Just...

e------------------------------------|-------------------------------------|
b------------------------------------|-------------------------------------|
g--0-------4---2---------------------|--0-------4---2----------------------|
d------4-----------4-------4h5--4--0-|------4-----------4-------4h5--4--0--|
a---------------------0--------------|---------------------0---------------|
d--2-------5-------0----0------------|--2-------5-------0----0-------------|
                                       (Let's...
(2nd guitar comes in here)
e------------------------------------|-------------------------------------|
b------------------------------------|-------------------------------------|
g--0-------4---2----------------2----|--0-------4---2----------------------|
d------4-----------4-------4h5-----0-|------4-----------4-------4h5--4--0--|
a---------------------0--------------|---------------------0---------------|
d--2-------5-------0----0------------|--2-------5-------0----0-------------|
                                       (Just...
(3rd guitar comes in here)
e------------------------------------|-------------------------------------|
b------------------------------------|-------------------------------------|
g--0-------4---2---------------------|--0-------4---2----------------2-----|
d------4-----------4-------4h5--4--0-|------4-----------4-------4h5-----0--|
a---------------------0--------------|---------------------0---------------|
d--2-------5-------0----0------------|--2-------5-------0----0-------------|
  (Let's...      |                      (Just...
 (3rd & 2nd stop V) (gets really quiet here)
e------------------------------------|-------------------------------------|
b------------------------------------|-------------------------------------|
g--0-------4---2---------------------|-------------------------------------|
d------4------------4----------------|----4h5---4---0----------------------|
a------------------------------------|---(5)------------3h4---5---0---5----|
d--2-------5--------0----------------|-------------------------------------|
  (Letfs...

Lyrics

Hush my love now don't you cry
Everything will be all right
Close your eyes and drift in dream
Rest in peaceful sleep

If there's one thing I hope I showed you [x2]
Hope I showed you

Just give love to all [x3]

Oh my love... in my arms tight
Every day you give me life
As I drift off to your world
Rest in peaceful sleep.

I know there's one thing that you showed me [x2]
That you showed me

Just give love to all [x3]
Let's give love to all [x2]
Just give love to all
Let's give love to all
Just give love to all
Let's give love to all