Crass - So What Chords & Tabs

 

So What Chords & Tabs

Crass Chords & Tabs

Version: 2 Type: Bass Tab

So What Bass Tab

Crass  So What
--------------------|
-7------------------|
---5-7-7------------|
----------5-5-5-5---|
[ Tab from: https://www.guitartabs.cc/tabs/c/crass/so_what_btab_ver_2.html ]
--------------------|
-7------------------|
---5-7-7------------|
----------5-5-5-5---|

--------------------|
-7------------------|
---5-7-7------------|
----------5-5-5-5---|

--------------------|
-7------------------|
---5-7-7------------|
----------5-5-5-5---|