Crash Test Dummies - Mmm Mmm Mmm Mmm Chords & Tabs

 

Mmm Mmm Mmm Mmm Chords & Tabs

Crash Test Dummies Chords & Tabs

Version: 2 Type: Bass Tab

Mmm Mmm Mmm Mmm Bass Tab

   
Band: Crash Test Dummies
Song: Mmm Mmm Mmm Mmm
Tabbed for: Bass
Tuning: EADG

Okay, I saw that another guy tabbed this song for bass here, and it's very very GOOD
work) but me, myself and I (=P) thought that it was kind'a diffucult to "read" so here I
tabbed it in a way that its a bit easier (at least for me) to see the tabs and stuff! 
the other tab is great too!
All you got to do is listening for the timing! The seconds and minutes may be different
a MP3 YOU have, but just listen to the timing! Okay?
ENJOY =D

Crash Test Dummies - Mmm Mmm Mmm Mmm (Bass)

Intro & Verse 1: (00:00)
-	No Bass 

Bass comes in: (00:49)
G|--------|
D|--------|
A|--------|
E|-4-4--6-|

Verse 2: (00:52)
G|--------------|--------------------|-----------|
D|--------------|--------------------|-----------|
A|-0-3-----6----|----6-----5-6-5-3-1-|---------6-|
E|------6-----3-|-4-----6------------|-4-4--6----|

G|----------------------|--------------|-------------------|
D|-------6-5------------|--------------|-------------------|
A|----6------6------8-8-|--------4-5-6-|-------4-5-6--5--6-|
E|-6-----------5-6------|-6-6-7--------|-6-6-7-------------|

Chorus: (01:26)
G|---------------------|------------------|---------------------|
D|---------------------|------------------|---------------------|
A|------5--5------5--5-|------------------|------5--5------5--5-|
E|-3--3------3--3------|-4--4-6--6-4--4-6-|-3--3------3--3------|

G|--------------3------------5-3-------|
D|----5-6-5-3-1----5-6-5-3-1-----------|
A|-------------------------------------|
E|--------------------------------0--1-|
[ Tab from: https://www.guitartabs.cc/tabs/c/crash_test_dummies/mmm_mmm_mmm_mmm_btab_ver_2.html ]
Bridge: (01:46)
G|------------|------------|----------------|----------8-|
D|------------|------------|------------5/6-|--5h6/8-----|
A|----5-6-----|-5-6-8------|-5-6------------|------------|
E|-1------4-6-|--------8-8-|------8-6-3-----|------------|

(Right into verse 3)
G|-10---12---10--|
D|---------------|
A|---------------|
E|---------------|

Verse 3: (02:00)
-	Just bass parts 
  (02:10)             (02:20)                  (02:28)
G|------------|      |-------------------|    |--------------------|
D|------------|      |-5h6p5-------------|    |------------6--5--3-|
A|-6-5-3------|      |-------6p5h6p6-----|    |--------------------|
E|-------3--4-|      |---------------6---|    |-0-1-2-4--4---------|

Chorus: (02:32)
G|---------------------|------------------|---------------------|
D|---------------------|------------------|---------------------|
A|------5--5------5--5-|------------------|------5--5------5--5-|
E|-3--3------3--3------|-4--4-6--6-4--4-6-|-3--3------3--3------|

G|-----------3------------0----------|
D|-5-6-5-3-1----5-6-5-3-1----3--1--3-|
A|-----------------------------------|
E|-----------------------------------|

Outro: (02:57)
G|-------------------|----------------------|--------8--8--------|
D|-----3-3-----------|----------------------|-5-5-6--6--6--------|
A|----------5-6------|-5-6-8-------5-6------|-------------5-5-6--|
E|-0-1-----------4-6-|--------8-8-------4-6-|--------------------|

G|-----------------------|-----------------|-------8--8------------|
D|-----3--3-3------------|-----------------|-------6--6-------8--8-|
A|-------------5-6-------|-5-6-8-------5-6-|------------------6--6-|
E|-0-0-1--1-1--------4-6-|--------8-8------|-8-6-4-------4-3-------|

Thomas Lundesgaard, Norway