Counting Crows - Omaha Chords & Tabs

 

Omaha Chords & Tabs

Counting Crows Chords & Tabs

Version: 2 Type: Bass Tab

Omaha Bass Tab

Counting Crows
Omaha

Transcribed by: Clyph
Based upon tab by Snap


Verse 1
G-----------------------------------------------------|
D-----------------------------------------------------|
A--------4---7--5-4-2------------4---5---0h5-4-2------|
E-2--5-7----------------0-2--5-7----------------0h2h5-|

G-----------------------------------------------------|
D-----------------------------------------------------|
A--------4---7--5-4-2------------4---7-70h55-0h5-----|
E-2--5-7----------------0-2--5-7----------------------|


Chorus 1
G-------------------------------------------------------------------------------------|
D------2-----------------------------------------------2------------------------------|
A----------------5---------7--0h5-5--055--0h5-------------------------5---------------|
E-5---------2---------5---------------------------5---------2--5--7---------0-2-4-2h4-|

G-2-1-----------------|
D-----4-2-------------|
A---------5-4-2-------|
E------------------0--|


Verse 2
G-----------------------------------------------------|
D-----------------------------------------------------|
A--------4---7--5-4-2------------4---5---0h5-4-2------|
E-2--5-7------------------2--5-7----------------0h2h5-|

G-----------------------------------------------------|
D-----------------------------------------------------|
A--------4---7--5-4-2------------4---7-70h55-0h5-----|
E-2--5-7------------------2--5-7----------------------|

[ Tab from: https://www.guitartabs.cc/tabs/c/counting_crows/omaha_btab_ver_2.html ]
Chorus 2
G-------------------------------------------------------------------------------------|
D------2-----------------------------------------------2------------------------------|
A----------------5---------7--0h5-5--055--0h5-------------------------5---------------|
E-5---------2---------5---------------------------5---------2--5--7---------0-2-4-2h4-|

G-2-1-----------------|
D-----4-2-------------|
A---------5-4-2-------|
E---------------0-----|

G-2-1-----------------|
D-----4-2-------------|
A---------5-4-7-------|
E-----------------0---|

G-2-1-----------------|
D-----4-2-------------|
A---------5-4-2-------|
E---------------0-----|

G-2-1-----------------|
D-----4-2-------------|
A---------5-4-2-------|
E-----------------0---|

Verse 3
G-----------------------------------------------------|
D-----------------------------------------------------|
A--------4---7--5-4-2------------4---5---0h5-4-2------|
E-2--5-7------------------2--5-7----------------0h2h5-|

G-----------------------------------------------------|
D-----------------------------------------------------|
A--------4---7--5-4-2------------4---7-70h55-0h5-----|
E-2--5-7------------------2--5-7----------------------|


Chorus 3
G-------------------------------------------------------------------------------------|
D------2-----------------------------------------------2------------------------------|
A----------------5----------7--0h5-5--055--0h5------------------------5---------------|
E-5---------2---------5---------------------------5---------2--5-7-------------------|


Chorus 4
G-------------------------------------------------------------------------------------|
D------2-----------------------------------------------2------------------------------|
A----------------5----------7--0h5-5--055--0h5---4--------------------5---------------|
E-5---------2---------5---------------------------5---------2--5--7---------0-2-4-2h4-|

G-2-1-----------------|
D-----4-2-------------|
A---------5-4-7-------|
E-----------------0---|

G-2-1-----------------|
D-----4-2-------------|
A---------5---7----0--|
E---------------------|