Cooper Temple Clause - The Same Mistakes Chords & Tabs

 

The Same Mistakes Chords & Tabs

Cooper Temple Clause Chords & Tabs

Version: 2 Type: Bass Tab

The Same Mistakes Bass Tab

   
The Same Mistakes by The Cooper Temple Clause
Bass played by Didz Hammond
Taken from the album Kick Up The Fire, And Let The Flames Break Loose
Tabbed by laurent (laurent.morin@hotmail.com)


Intro (Very faint)
(Repeat 2 times) (0:00-0:14)

G|-0-0-3-3-5-5-0-0|------------------|
D|----------------|-1-0-3-3-3-3-3-3--|
A|----------------|------------------|
E|----------------|------------------|


Verse 1
(Repeat 3 times) (0:14-1:53)

G|----------------|----------------|----------------|----------------|----------------|
D|-----1-1-0-0-3-3|-1-1-1-1-1-1-1-1|-5-5-3-3-6-6-5-6|-0-0-0-0-0-0-0-1|-----3-3-1-1-0-0|
A|-3-3------------|----------------|----------------|----------------|-3-3------------|
E|----------------|----------------|----------------|----------------|----------------|

G|----------------|-3-3-5-5--------|----------------|----------------|----------------|
D|-5-5-5-5-5-5-5-5|---------5-5-1-0|-3-3-3-3-3-3-3-5|-1-1-1-1-1-1-1-3|-0-0-0-0-0-0-0-1|
A|----------------|----------------|----------------|----------------|----------------|
E|----------------|----------------|----------------|----------------|----------------|


Verse 1 Transition
(1:53-1:59)

G|----------------|----------------|
D|----------------|-1-1-1-1-1-1-1-1|
A|-3-3-3-3-3-3-3-3|----------------|
E|----------------|----------------|


Verse 1
(1:59-2:32)

G|----------------|----------------|----------------|----------------|----------------|
D|-----1-1-0-0-3-3|-1-1-1-1-1-1-1-1|-5-5-3-3-6-6-5-6|-0-0-0-0-0-0-0-1|-----3-3-1-1-0-0|
A|-3-3------------|----------------|----------------|----------------|-3-3------------|
E|----------------|----------------|----------------|----------------|----------------|
[ Tab from: https://www.guitartabs.cc/tabs/c/cooper_temple_clause/the_same_mistakes_btab_ver_2.html ]
G|----------------|-3-3-5-5--------|----------------|----------------|----------------|
D|-5-5-5-5-5-5-5-5|---------5-5-1-0|-3-3-3-3-3-3-3-5|-1-1-1-1-1-1-1-3|-0-0-0-0-0-0-0-1|
A|----------------|----------------|----------------|----------------|----------------|
E|----------------|----------------|----------------|----------------|----------------|


Verse 2 Transition
(2:32-3:08)

G|----------------|----------------|----------------|----------------|----------------|
D|----111100003333|1111111111111111|5555333366665566|0000000000000011|----333311110000|
A|3333------------|----------------|----------------|----------------|3333------------|
E|----------------|----------------|----------------|----------------|----------------|

G|----------------|33335555--------|----------------|----------------|------------------|
D|5555555555555555|--------55551100|3333333333333355|1111111111111133|0000000000000000---|
A|----------------|----------------|----------------|----------------|-------------------|
E|----------------|----------------|----------------|----------------|-------------------|

G|----------------|
D|0000000000000011|
A|----------------|
E|----------------|


Verse 2
(Repeat 3 times) (3:08-4:46)

G|----------------|----------------|----------------|----------------|----------------|
D|----111100003333|1111111111111111|5555333366665566|0000000000000011|----333311110000|
A|3333------------|----------------|----------------|----------------|3333------------|
E|----------------|----------------|----------------|----------------|----------------|

G|----------------|33335555--------|----------------|----------------|------------------|
D|5555555555555555|--------55551100|3333333333333355|1111111111111133|0000000000000011---|
A|----------------|----------------|----------------|----------------|-------------------|
E|----------------|----------------|----------------|----------------|-------------------|

Incredible song, this band really knows how to push the limits.
I know ANGRY PIRATE already made a good tab, but since I had this one already done, and 
one is complete, I though I might still post it.

Peace