Conflict - Great What Chords & Tabs

 

Great What Chords & Tabs

Conflict Chords & Tabs

Version: 1 Type: Tab

Great What Tab

Conflict  Great What?
Album: It's Time To See Who's Who Now

E|---------------------------------|
B|---------------------------------|
G|---------------------------------|
D|--4/6-----6----------------------|
A|--4/6-----6[Harmonics]-----------|
E|--2/4-----4----------------------|
[ Tab from: https://www.guitartabs.cc/tabs/c/conflict/great_what_tab.html ]
Chorus/Verse
E|----------------|
B|----------------|
G|-3--6-----------|
D|-3--6--6--3-----|
A|-1--4--6--3-----|
E|-------4--1-----|

Breakdown (before break)
E|------------------|
B|------------------|
G|------------------|
D|--3-4-5--6-7-8----|
A|--3-4-5--6-7-8----|
E|--1-2-3--4-5-6----|