Coldplay - In My Place Chords & Tabs

 

In My Place Chords & Tabs

Coldplay Chords & Tabs

Version: 4 Type: Bass Tab

In My Place Bass Tab

   
-----------------------------------------------------------------------------
			     IN MY PLACE - Coldplay
-----------------------------------------------------------------------------

Tabbed By : rogmar009
e-mail: rogmar009@aol.com



So this is my first tab.  I usually play guitar but I figured out this song 
on bass.  Im pretty sure its 100%.  From what I hear it fits perfectly with 
the song.  Let me know what you think.


Tuning: standard


INTRO (drums and guitar)
G|--------------------------------------------------------------------------|
D|--------------------------------------------------------------------------|
A|--------------------------------------------------------------------------|
E|--------------------------------------------------------------------------|

INTRO (where bass comes in)
G|--------------------------------------------------------------------------|
D|--------------------------------------------------------------------------|
A|-----------------4-4-4-4/7-7------------------4-4-4-4/7-7-----------------|
E|------5-5-5-44-4-------------------5-5-5-22-2-----------------------------|

G|--------------------------------------------------------------------------|
D|--------------------------------------------------------------------------|
A|-----------------4-4-4-4/7-7------------------4-4-4-4/7-7-----------------|
E|------5-5-5-44-4-------------------5-5-5-22-2-----------------------------|

VERSE 1
G|--------------------------------------------------------------------------|
D|--------------------------------------------------------------------------|
A|-----------------4-4-4-4/7-7------------------4-4-4-4/7-7-----------------|
E|------5-5-5-44-4-------------------5-5-5-22-2-----------------------------|

G|--------------------------------------------------------------------------|
D|--------------------------------------------------------------------------|
A|-----------------4-4-4-4/7-7------------------4-4-4-4/7-7-----------------|
E|------5-5-5-44-4-------------------5-5-5-22-2-----------------------------|


CHORUS
G|--------------------------------------------------------------------------|
D|---------7---9-7-6------------7---9-7-6-----------7---9-7-6---------------|
A|-5~--7h9-----------75~--7h9------------75~--7h9-----------7-5~----5-7~--|
E|-------------------------------------------------------------------5------|
[ Tab from: https://www.guitartabs.cc/tabs/c/coldplay/in_my_place_btab_ver_4.html ]
RE-INTRO
G|--------------------------------------------------------------------------|
D|--------------------------------------------------------------------------|
A|-----------------4-4-4-4/7-7------------------4-4-4-4/7-7-----------------|
E|------5-5-5-44-4-------------------5-5-5-22-2-----------------------------|

VERSE 2
G|--------------------------------------------------------------------------|
D|--------------------------------------------------------------------------|
A|-----------------4-4-4-4/7-7------------------4-4-4-4/7-7-----------------|
E|------5-5-5-44-4-------------------5-5-5-22-2-----------------------------|

G|--------------------------------------------------------------------------|
D|--------------------------------------------------------------------------|
A|-----------------4-4-4-4/7-7------------------4-4-4-4/7-7-----------------|
E|------5-5-5-44-4-------------------5-5-5-22-2-----------------------------|

CHORUS
G|--------------------------------------------------------------------------|
D|---------7---9-7-6------------7---9-7-6-----------7---9-7-6---------------|
A|-5~--7h9-----------75~--7h9------------75~--7h9-----------7-5~----5-7~--|
E|-------------------------------------------------------------------5------|

BRIDGE 
(I think this is actually the piano or organ, but you can play it like this on bass if you want)
G|--------------------------------------------------------------------------|
D|------------7~----4~--------------------7~----4~----------7~--------------|
A|------------------------4~----7~--------------------4~--------------------|
E|--------------------------------------------------------------------------|

G|--------------------------------------------------------------------------|
D|------------7~----4~--------------------7~----4~----------7~--------------|
A|------------------------4~----7~--------------------4~--------------------|
E|--------------------------------------------------------------------------|

OUTRO
G|--------------------------------------------------------------------------|
D|--------------------------------------------------------------------------|
A|-----------------4-4-4-4/7-7------------------4-4-4-4/7-7-----------------|
E|------5-5-5-44-4-------------------5-5-5-22-2-----------------------------|

G|--------------------------------------------------------------------------|
D|--------------------------------------------------------------------------|
A|-----------------4-4-4-4/7-7------------------4-4-4-4/7-7-----------------|
E|------5-5-5-44-4-------------------5-5-5-22-2-----------------------------|

END ON

G|------|
D|------|
A|------|
E|--5~--|




| /  slide up
| \  slide down
| h  hammer-on
| p  pull-off
| ~  vibrato
| +  harmonic
| x  Mute note
=============================================================================