Cold - Wasted Years Chords & Tabs

 

Wasted Years Chords & Tabs

Cold Chords & Tabs

Version: 3 Type: Bass Tab

Wasted Years Bass Tab

The song is normally played with a 5 string but for those of you who donít have a 5 
hear it is in 4.


-the bass doesn't come in until about 1:04

Verse
G -----------------------------------------------------|
D --------------------4--------------------------------|
A ---3-3---3-3---3-------------3-3---3-3---3-----1-----|
E -----------------------------------------------------|
[ Tab from: https://www.guitartabs.cc/tabs/c/cold/wasted_years_btab_ver_3.html ]
Chorus
G --------------------------------------------------------|
D --------------------------------------------------------|
A -------------------6------5-----------------------------|
E ----3-------6-------------------------------------------|


Alternate Verse
G -----------------------------------------------------|
D -----------------------------------------------------|
A ---3-3---3-3---3-------------3-3---3-3---3-----1-----|
E ---------------------1-------------------------------|


Order:
Verse (X4)
Chorus (X2)
Verse
Alternate Verse (X2)
Chorus (just keep playing until the vocals stop)