Cocorosie - By Your Side Chords & Tabs

 

By Your Side Chords & Tabs

Cocorosie Chords & Tabs

Version: 1 Type: Tab

By Your Side Tab

---------------------------------------------------------------
--                artist: cocorosie                          --
--                song: by your side (acoustic)              --
--                Album: La Maison De Mon RÍve               --
--                tab by: bomboutch                          --
---------------------------------------------------------------

 capo 2

           do          mi        la

 e)----0-----0-----0----0----0----0----0----0---|
 B)----1-----1-----0----0---(0)1--1----1----1---|
 G)----0-----0-----0----0----2----2----2----2---|
 D)---------2----------2---------2---------2----|
 A)--3----3----0-2---2---0-0---0-----0---0----0-|
 E)---------------------------------------------|
[ Tab from: https://www.guitartabs.cc/tabs/c/cocorosie/by_your_side_tab.html ]
   do          mi        la       la  si  do...
   ---0-----0-----0----0----0----0--0---0---0--|
   ---1-----1-----0----0---(0)1--1--1---0---1--|
   ---0-----0-----0----0----2----2--2---0---0--|
   --------2----------2---------2--------------|
   3----3----0-2---2---0-0---0----0---2---3----|
   --------------------------------------------|

---------------------------------------------------

 I'll always be by your side
 Even when you're down and out
 I'll always be by your side
 Even when you're down and out
 I just wanted to be your housewife
 All i wanted was to be your housewife
 I'll iron your clothes
 I'll shine your shoes
 I'll make your bed
 And cook your food
 I'll never cheat
 I'll be the best girl you'll ever meet
 And for a diamond ring
 I'll do these kinds of things
 I'll scrub your floor
 Never be a bore
 I'll tuck you in
 I do not snore
 I'd wear your black eyes
 Bake you apple pies
 I don't ask why
 And i trys not to crys
 I'll always be by your side
 Even when you're down and out
 Lyrics
 I'll always be by your side
 Even when you're down and out
 And its nearly midnight
 And all i want with my life
 Is to be a housewife
 Is to be a housewife
 'Cause it's nearly midnight
 And all i want with my life
 Is to die a housewife
 Is to die a housewife

 bomboutch_nbbgt@hotmail.com