Cock Sparrer - Chip On My Shoulder Chords & Tabs

 

Chip On My Shoulder Chords & Tabs

Cock Sparrer Chords & Tabs

Version: 1 Type: Bass Tab

Chip On My Shoulder Bass Tab

Verse 
G|--------------------------------------------------------------------|
D|-----------577757757----------------------577757757-----------------|
A|--------------------7-----5------------------------7-----5----------|
E|-577757757-----------5555--5555-577757757-----------5555--5555------|

Verse  (Well the country's burned down look at it smolder)
G|--------------------------------------------------------------------|
D|-----------577757757----------------------577757757-----------------|
A|--------------------7-----5------------------------7-----5----------|
E|-577757757-----------5555--5555-577757757-----------5555--5555------|

Chorus:(You can't show us nothing we don't wanna be shown)
G|--------------------------------------------------------------------|
D|--------------------------------------------------------------------|
A|----------55555555----------------55555555--------------------------|
E|-77777777---------3333333355555555--------55555555-7775-77775-7----|
       (A chip on your shoulder) 
G|--------------------------------------------------------------------|
D|--------------------------------------------------------------------|
A|-7~~~-5~~~577777-577777-577777-577777-------------------------------|
E|--------------------------------------------------------------------|

Verse  (I'm gonna shout gonna scream don't wanna job too soon)
G|--------------------------------------------------------------------|
D|-----------577757757----------------------577757757-----------------|
A|--------------------7-----5------------------------7-----5----------|
E|-577757757-----------5555--5555-577757757-----------5555--5555------|
[ Tab from: https://www.guitartabs.cc/tabs/c/cock_sparrer/chip_on_my_shoulder_btab.html ]
Chorus: (Runnin' riot might as well)
G|--------------------------------------------------------------------|
D|--------------------------------------------------------------------|
A|----------55555555----------------55555555--------------------------|
E|-77777777---------3333333355555555--------55555555-7775-77775-7----|
        (A chip on your shoulder)
G|--------------------------------------------------------------------|
D|--------------------------------------------------------------------|
A|-7~~~-5~~~577777-577777-577777-577777-------------------------------|
E|--------------------------------------------------------------------|

Bridge
G|--------------------------------------------------------------------|
D|-5555555555555555----------------5555555555555555-5777-77-5777-77-57|
A|-----------------7777777777777777-----------------------------------|
E|--------------------------------------------------------------------|

G|--------------------------------------------------------------------|
D|77-5777-57-57-57-57-------------------------------------------------|
A|--------------------------------------------------------------------|
E|--------------------------------------------------------------------|

Verse   (We don't need none of your aggravation)
G|--------------------------------------------------------------------|
D|-----------577757757----------------------577757757-----------------|
A|--------------------7-----5------------------------7-----5----------|
E|-577757757-----------5555--5555-577757757-----------5555--5555------|

Chorus: (You can't show us nothing we don't wanna be shown)
G|--------------------------------------------------------------------|
D|--------------------------------------------------------------------|
A|----------55555555----------------55555555--------------------------|
E|-77777777---------3333333355555555--------55555555-7775-77775-7----|
        (Everywhere we go they shout you got a chip on your shoulder)
G|--------------------------------------------------------------------|
D|--------------------------------------------------------------------|
A|-55555555----------------------55555555-----------------------------|
E|---------55555555-7775-77775-7--------55555555-7775-7--------------|