Cloud Cult - That Man Jumped Out The Window Chords & Tabs

 

That Man Jumped Out The Window Chords & Tabs

Cloud Cult Chords & Tabs

Version: 1 Type: Tab

That Man Jumped Out The Window Tab

That Man Jumped Out The Window

e|---------------------------------------------------------------------|
B|---------------------------------------------------------------------|
G|-------------------------------------------4-4-4--4-4-4--5-5-5-------|
D|-----2----2-2-----3----3-3-----5----5-5------------------------------|
A|-3-3--3-3--3--3-3--3-3--3--3-3--3-3--3-------------------------------|
E|---------------------------------------------------------------------|

e|---------------------------------------------------------------------|
B|---------------------------------------------------------------------|
G|---------------2-2-2--0-0-0-----------------2-2-2--0-0---4-4--5------|
D|-3-3-3--2-2-2----------------2-2-2--0-0-0-----------------5-5--------|
A|---------------------------------------------------------------------|
E|---------------------------------------------------------------------|
[ Tab from: https://www.guitartabs.cc/tabs/c/cloud_cult/that_man_jumped_out_the_window_tab.html ]
There may be a 2nd guitar playing the underlying bass notes after the first C you play 
the A string, but when itís repeated later itís just the high notes.

Then you can strum with the overall chords leading up to the Ďsoloí.

e|---------------------------------------------------------------------|
B|---------------------------------------------------------------------|
G|-5-------------------------------------------------------------------|
D|-5----------7----------5----------3----------------------------------|
A|-3----------7----------5----------3----------------------------------|
E|------------5----------3----------1----------------------------------|

e|---------------------------------------------------------------------|
B|---------------------------------------------------------------------|
G|--12----10---9---10----9----7-----10--7---7---7---5--4---------------|
D|---------------------------------------------------------------------|
A|--10----8----7---8-----7----5-----8---9---9---5---3--2---------------|
E|---------------------------------------------------------------------|