Cinema Bizarre - Crashing And Burning Chords & Tabs

 

Crashing And Burning Chords & Tabs

Cinema Bizarre Chords & Tabs

Version: 1 Type: Tab

Crashing And Burning Tab

Verse
|-----------------------------------------------------------------------|
|-----------------------------------------------------------------------|
|-----------------------------------------------------------------------|
|--------11---------7---------9-------9---------------------------------|
|-----11---------7---------9-------9------------------------------------|
|---9---------5---------7--------7--------------------------------------|  x6


Pre-Chorus
|-----------------------------------------------------------------------|
|-----------------------------------------------------------------------|
|-----------------------------------------------------------------------|
|--------7-----------7------------7-----------7-------------------------|
|------7-----------7------------7-----------7---------------------------|
|----5-----------5------------5-----------5-----------------------------|


Chorus 1
|-----------------------------------------------------------------------|
|-----------------------------------------------------------------------|
|-----------------------------------------------------------------------|
|------11---------------------7------------------9----------------------|
|------11---------------------7------------------9----------------------|
|-------9--x8-----------------5--x8--------------7--x16-----------------|

|-----------------------------------------------------------------------|
|-----------------------------------------------------------------------|
|-----------------------------------------------------------------------|
|------11---------------------9-----------------7-----------------------|
|------11---------------------9-----------------7-----------------------|
|-------9--x8-----------------7--x8-------------5--x16------------------|

|-----------------------------------------------------------------------|
|-----------------------------------------------------------------------|
|-----------------------------------------------------------------------|
|------11---------------------7------------------9----------------------|
|------11---------------------7------------------9----------------------|
|-------9--x8-----------------5--x8--------------7--x16-----------------|
[ Tab from: https://www.guitartabs.cc/tabs/c/cinema_bizarre/crashing_and_burning_tab.html ]
|-----------------------------------------------------------------------|
|-----------------------------------------------------------------------|
|-----------------------------------------------------------------------|
|------11---------------9--9-------------------7--7---------------------|
|------11---------------9--9-------------------7--7---------------------|
|-------9---------------7--7-------------------5--5---------------------|


Verse


Pre-Chorus


Chorus 1


Bridge
|---------------------------------------|-------------------------------|
|---------------------------------------|-------------------------------|
|---------------------------------------|-------------------------------|
|-----------5-----------------------7---|---------------9---------------|
|--------5-----------------------7------|------------9------------------|
|-----3----------------------5----------|x6------7----------------------|x4


Chorus 2
|-----------------------------------------------------------------------|
|-----------------------------------------------------------------------|
|-----------------------------------------------------------------------|
|------11---------------------7------------------9----------------------|
|------11---------------------7------------------9----------------------|
|-------9--x8-----------------5--x8--------------7--x16-----------------|

|-----------------------------------------------------------------------|
|-----------------------------------------------------------------------|
|-----------------------------------------------------------------------|
|------11---------------------9-----------------7-----------------------|
|------11---------------------9-----------------7-----------------------|
|-------9--x8-----------------7--x8-------------5--x16------------------|

|-----------------------------------------------------------------------|
|-----------------------------------------------------------------------|
|-----------------------------------------------------------------------|
|------11---------------9--------------7-----------------9--------------|
|------11---------------9--------------7-----------------9--------------|
|-------9--x8-----------7--x8----------5--x8-------------7--x8----------|

|-----------------------------------------------------------------------|
|-----------------------------------------------------------------------|
|-----------------------------------------------------------------------|
|------11---------------------9-----------------7-----------------------|
|------11---------------------9-----------------7-----------------------|
|-------9--x8-----------------7--x8-------------5--x16------------------|


Chorus 1


Verse



Thatís it^^ hope you like it! ;]