Chumbawamba - Tubthumping Chords & Tabs

 

Tubthumping Chords & Tabs

Chumbawamba Chords & Tabs

Version: 1 Type: Bass Tab

Tubthumping Bass Tab

Bass ChumbaWamba Tub Thumping


We'll be singing
When we're winning
We'll be singing

I get knocked down
G|---------------------------------------------------|
D|-----------00--------------------------------------|
A|---------------------------------------------------|
E|---------------------------------------------------|
But I get up again
G|-----------00--------------------------------------|
D|---------------------------------------------------|
A|---------------------------------------------------|
E|---------------------------------------------------|
You're never going to keep me down
G|-------------------------00------------------------|
D|-----------00--------------------------------------|
A|---------------------------------------------------|
E|---------------------------------------------------|

I get knocked down
G|---------------------------------------------------|
D|-----------00--------------------------------------|
A|---------------------------------------------------|
E|---------------------------------------------------|

But I get up again
G|-----------00--------------------------------------|
D|---------------------------------------------------|
A|---------------------------------------------------|
E|---------------------------------------------------|

You're never going to keep me down
G|---------------------------------------------------|
D|---------------------------------------------------|
A|--------0-0-0-0-0-0-0-0-0-0-0----------------------|
E|---------------------------------------------------|


Pissing the night away

G|----------------------------------------------------|
D|----------------------------------------------------|
A|--------------------0000----------------------------|
E|000000--33333---------------------------------------|

Pissing the night away
G|---------------------------------------------------|
D|---------------------------------------------------|
A|---------------0000--------------------------------|
E|000000--33333--------------------------------------|

[ Tab from: https://www.guitartabs.cc/tabs/c/chumbawamba/tubthumping_btab.html ]
He drinks a whisky drink
G|---------------------------------------------------|
D|-----------00--------------------------------------|
A|---------------------------------------------------|
E|---------------------------------------------------|

He drinks a vodka drink
G|-----------00--------------------------------------|
D|---------------------------------------------------|
A|---------------------------------------------------|
E|---------------------------------------------------|

He drinks a lager drink
G|---------------------------------------------------|
D|-----------00--------------------------------------|
A|---------------------------------------------------|
E|---------------------------------------------------|

He drinks a cider drink
G|-----------00--------------------------------------|
D|---------------------------------------------------|
A|---------------------------------------------------|
E|---------------------------------------------------|

He sings the songs that remind him
G|---------------------------------------------------|
D|-----------00--------------------------------------|
A|---------------------------------------------------|
E|---------------------------------------------------|

Of the good times
G|-----------00--------------------------------------|
D|---------------------------------------------------|
A|---------------------------------------------------|
E|---------------------------------------------------|

He sings the songs that remind him Of the better times:
G|---------------------------------------------------|
D|---------------------------------------------------|
A|--------0-0-0-0-0-0-0-0-0-0-0----------------------|
E|---------------------------------------------------|

"Oh Danny Boy
Danny Boy
Danny Boy..."	     Same as chorus


I get knocked down
But I get up again
You're never going to keep me down
I get knocked down
But I get up again
You're never going to keep me down

Pissing the night away
Pissing the night away

He drinks a whisky drink
He drinks a vodka drink
He drinks a lager drink
He drinks a cider drink
He sings the songs that remind him
Of the good times
He sings the songs that remind him
Of the better times:


"Don't cry for me
Next door neighbour...   Same as chorus

I get knocked down

But I get up again
You're never going to keep me down
I get knocked down
But I get up again
You're never going to keep me down