Children Of Bodom - Banned From Heaven Chords & Tabs

 

Banned From Heaven Chords & Tabs

Children Of Bodom Chords & Tabs

Version: 1 Type: Tab

Banned From Heaven Tab

Tab made of metal-hallin.
My first tab ever, should be correct.
My guitar is tuned in D, so the tab is made in D-tuning.
But the real song is proably in dropped C, so if you want to play the
the real thing with vers you have to move my tab 2 up the freatboard.

|---------------------------------------------------|
|--------10--10-11-8--------6--6-8-5----------------|
|-7---7--------------7---7--------------------------|
|---0------------------0----------------------------|               x2
|---------------------------------------------------|
|---------------------------------------------------|

[ Tab from: https://www.guitartabs.cc/tabs/c/children_of_bodom/banned_from_heaven_tab.html ]
|--------------------------------|
|--------------------------------|
|-10-7-10-7-5-------7---7-9-10-7-|
|--------------7-5----5----------|
|--------------------------------|
|--------------------------------|

|----------------------------|
|----------------------5-6-5-|
|-7---7-10-9--5-7--5-7-------|
|---0------------------------|
|----------------------------|
|----------------------------|

                                         x2
|------------------------------|
|------------------------------|
|-7---7-10-9--5-4--------------|
|---0-------------5-4---9-10-7-|
|---------------------7--------|
|------------------------------|

|------------|
|--------10--|
|-7---7------|
|---0--------|
|------------|
|------------|